  0
SECTION
  2
HEADER
  9
$ACADVER
  1
AC1015
  9
$ACADMAINTVER
 70
    20
  9
$DWGCODEPAGE
  3
ANSI_932
  9
$INSBASE
 10
21.47289699729588
 20
-14.37850894672392
 30
0.0
  9
$EXTMIN
 10
-2043.622720827855
 20
66.51001714309066
 30
0.0
  9
$EXTMAX
 10
-2016.858966828728
 20
89.6648097604543
 30
0.0
  9
$LIMMIN
 10
-22.0
 20
-20.5
  9
$LIMMAX
 10
822.0
 20
570.5
  9
$ORTHOMODE
 70
     0
  9
$REGENMODE
 70
     1
  9
$FILLMODE
 70
     1
  9
$QTEXTMODE
 70
     0
  9
$MIRRTEXT
 70
     0
  9
$LTSCALE
 40
1.0
  9
$ATTMODE
 70
     1
  9
$TEXTSIZE
 40
0.2
  9
$TRACEWID
 40
0.05
  9
$TEXTSTYLE
  7
Standard
  9
$CLAYER
  8
SPC-TXT
  9
$CELTYPE
  6
ByLayer
  9
$CECOLOR
 62
   256
  9
$CELTSCALE
 40
1.0
  9
$DISPSILH
 70
     0
  9
$DIMSCALE
 40
1.0
  9
$DIMASZ
 40
0.15
  9
$DIMEXO
 40
0.25
  9
$DIMDLI
 40
0.38
  9
$DIMRND
 40
0.0
  9
$DIMDLE
 40
0.0
  9
$DIMEXE
 40
0.05
  9
$DIMTP
 40
0.0
  9
$DIMTM
 40
0.0
  9
$DIMTXT
 40
0.25
  9
$DIMCEN
 40
0.09
  9
$DIMTSZ
 40
0.0
  9
$DIMTOL
 70
     0
  9
$DIMLIM
 70
     0
  9
$DIMTIH
 70
     0
  9
$DIMTOH
 70
     0
  9
$DIMSE1
 70
     0
  9
$DIMSE2
 70
     0
  9
$DIMTAD
 70
     1
  9
$DIMZIN
 70
     0
  9
$DIMBLK
  1
Open
  9
$DIMASO
 70
     1
  9
$DIMSHO
 70
     1
  9
$DIMPOST
  1

  9
$DIMAPOST
  1

  9
$DIMALT
 70
     0
  9
$DIMALTD
 70
     2
  9
$DIMALTF
 40
25.4
  9
$DIMLFAC
 40
1000.0
  9
$DIMTOFL
 70
     0
  9
$DIMTVP
 40
0.0
  9
$DIMTIX
 70
     0
  9
$DIMSOXD
 70
     0
  9
$DIMSAH
 70
     0
  9
$DIMBLK1
  1

  9
$DIMBLK2
  1

  9
$DIMSTYLE
  2
\U+FF7A\U+FF8B\U+FF9F\U+FF70 - Standard
  9
$DIMCLRD
 70
   256
  9
$DIMCLRE
 70
   256
  9
$DIMCLRT
 70
     0
  9
$DIMTFAC
 40
1.0
  9
$DIMGAP
 40
0.01
  9
$DIMJUST
 70
     0
  9
$DIMSD1
 70
     0
  9
$DIMSD2
 70
     0
  9
$DIMTOLJ
 70
     1
  9
$DIMTZIN
 70
     0
  9
$DIMALTZ
 70
     0
  9
$DIMALTTZ
 70
     0
  9
$DIMUPT
 70
     0
  9
$DIMDEC
 70
     0
  9
$DIMTDEC
 70
     0
  9
$DIMALTU
 70
     2
  9
$DIMALTTD
 70
     2
  9
$DIMTXSTY
  7
ゴシック
  9
$DIMAUNIT
 70
     0
  9
$DIMADEC
 70
     0
  9
$DIMALTRND
 40
0.0
  9
$DIMAZIN
 70
     0
  9
$DIMDSEP
 70
    46
  9
$DIMATFIT
 70
     3
  9
$DIMFRAC
 70
     0
  9
$DIMLDRBLK
  1
Open
  9
$DIMLUNIT
 70
     2
  9
$DIMLWD
 70
    -1
  9
$DIMLWE
 70
    -1
  9
$DIMTMOVE
 70
     2
  9
$LUNITS
 70
     2
  9
$LUPREC
 70
     4
  9
$SKETCHINC
 40
0.1
  9
$FILLETRAD
 40
0.0
  9
$AUNITS
 70
     0
  9
$AUPREC
 70
     0
  9
$MENU
  1
.
  9
$ELEVATION
 40
0.0
  9
$PELEVATION
 40
0.0
  9
$THICKNESS
 40
0.0
  9
$LIMCHECK
 70
     0
  9
$CHAMFERA
 40
0.0
  9
$CHAMFERB
 40
0.0
  9
$CHAMFERC
 40
0.0
  9
$CHAMFERD
 40
0.0
  9
$SKPOLY
 70
     0
  9
$TDCREATE
 40
2453653.653645833
  9
$TDUCREATE
 40
2453653.278647998
  9
$TDUPDATE
 40
2459454.741562500
  9
$TDUUPDATE
 40
2459454.366562500
  9
$TDINDWG
 40
0.7023846412
  9
$TDUSRTIMER
 40
0.7023846412
  9
$USRTIMER
 70
     1
  9
$ANGBASE
 50
0.0
  9
$ANGDIR
 70
     0
  9
$PDMODE
 70
     0
  9
$PDSIZE
 40
0.0
  9
$PLINEWID
 40
0.0
  9
$SPLFRAME
 70
     0
  9
$SPLINETYPE
 70
     6
  9
$SPLINESEGS
 70
     8
  9
$HANDSEED
  5
7D5
  9
$SURFTAB1
 70
     6
  9
$SURFTAB2
 70
     6
  9
$SURFTYPE
 70
     6
  9
$SURFU
 70
     6
  9
$SURFV
 70
     6
  9
$UCSBASE
  2

  9
$UCSNAME
  2

  9
$UCSORG
 10
0.0
 20
0.0
 30
0.0
  9
$UCSXDIR
 10
1.0
 20
0.0
 30
0.0
  9
$UCSYDIR
 10
0.0
 20
1.0
 30
0.0
  9
$UCSORTHOREF
  2

  9
$UCSORTHOVIEW
 70
     0
  9
$UCSORGTOP
 10
0.0
 20
0.0
 30
0.0
  9
$UCSORGBOTTOM
 10
0.0
 20
0.0
 30
0.0
  9
$UCSORGLEFT
 10
0.0
 20
0.0
 30
0.0
  9
$UCSORGRIGHT
 10
0.0
 20
0.0
 30
0.0
  9
$UCSORGFRONT
 10
0.0
 20
0.0
 30
0.0
  9
$UCSORGBACK
 10
0.0
 20
0.0
 30
0.0
  9
$PUCSBASE
  2

  9
$PUCSNAME
  2

  9
$PUCSORG
 10
0.0
 20
0.0
 30
0.0
  9
$PUCSXDIR
 10
1.0
 20
0.0
 30
0.0
  9
$PUCSYDIR
 10
0.0
 20
1.0
 30
0.0
  9
$PUCSORTHOREF
  2

  9
$PUCSORTHOVIEW
 70
     0
  9
$PUCSORGTOP
 10
0.0
 20
0.0
 30
0.0
  9
$PUCSORGBOTTOM
 10
0.0
 20
0.0
 30
0.0
  9
$PUCSORGLEFT
 10
0.0
 20
0.0
 30
0.0
  9
$PUCSORGRIGHT
 10
0.0
 20
0.0
 30
0.0
  9
$PUCSORGFRONT
 10
0.0
 20
0.0
 30
0.0
  9
$PUCSORGBACK
 10
0.0
 20
0.0
 30
0.0
  9
$USERI1
 70
     0
  9
$USERI2
 70
     0
  9
$USERI3
 70
     0
  9
$USERI4
 70
     0
  9
$USERI5
 70
     0
  9
$USERR1
 40
0.0
  9
$USERR2
 40
0.0
  9
$USERR3
 40
0.0
  9
$USERR4
 40
0.0
  9
$USERR5
 40
0.0
  9
$WORLDVIEW
 70
     1
  9
$SHADEDGE
 70
     3
  9
$SHADEDIF
 70
    70
  9
$TILEMODE
 70
     1
  9
$MAXACTVP
 70
    64
  9
$PINSBASE
 10
0.0
 20
0.0
 30
0.0
  9
$PLIMCHECK
 70
     0
  9
$PEXTMIN
 10
1.000000000000000E+20
 20
1.000000000000000E+20
 30
1.000000000000000E+20
  9
$PEXTMAX
 10
-1.000000000000000E+20
 20
-1.000000000000000E+20
 30
-1.000000000000000E+20
  9
$PLIMMIN
 10
0.0
 20
0.0
  9
$PLIMMAX
 10
12.0
 20
9.0
  9
$UNITMODE
 70
     0
  9
$VISRETAIN
 70
     1
  9
$PLINEGEN
 70
     0
  9
$PSLTSCALE
 70
     1
  9
$TREEDEPTH
 70
  3020
  9
$CMLSTYLE
  2
Standard
  9
$CMLJUST
 70
     0
  9
$CMLSCALE
 40
1.0
  9
$PROXYGRAPHICS
 70
     1
  9
$MEASUREMENT
 70
     0
  9
$CELWEIGHT
370
    -1
  9
$ENDCAPS
280
     0
  9
$JOINSTYLE
280
     0
  9
$LWDISPLAY
290
     0
  9
$INSUNITS
 70
     0
  9
$HYPERLINKBASE
  1

  9
$STYLESHEET
  1

  9
$XEDIT
290
     1
  9
$CEPSNTYPE
380
     0
  9
$PSTYLEMODE
290
     1
  9
$FINGERPRINTGUID
  2
{F258847C-2566-4A48-972E-E5C6E8D6925E}
  9
$VERSIONGUID
  2
{6BA57046-2393-7442-B9C1-19E5F95A9074}
  9
$EXTNAMES
290
     1
  9
$PSVPSCALE
 40
0.0
  9
$OLESTARTUP
290
     0
  0
ENDSEC
  0
SECTION
  2
CLASSES
  0
CLASS
  1
ACDBDICTIONARYWDFLT
  2
AcDbDictionaryWithDefault
  3
ObjectDBX Classes
 90
        0
280
     0
281
     0
  0
CLASS
  1
DICTIONARYVAR
  2
AcDbDictionaryVar
  3
ObjectDBX Classes
 90
        0
280
     0
281
     0
  0
CLASS
  1
ACDBPLACEHOLDER
  2
AcDbPlaceHolder
  3
ObjectDBX Classes
 90
        0
280
     0
281
     0
  0
CLASS
  1
LAYOUT
  2
AcDbLayout
  3
ObjectDBX Classes
 90
        0
280
     0
281
     0
  0
CLASS
  1
TABLESTYLE
  2
AcDbTableStyle
  3
ObjectDBX Classes
 90
     4095
280
     0
281
     0
  0
CLASS
  1
MATERIAL
  2
AcDbMaterial
  3
ObjectDBX Classes
 90
     1153
280
     0
281
     0
  0
CLASS
  1
VISUALSTYLE
  2
AcDbVisualStyle
  3
ObjectDBX Classes
 90
     4095
280
     0
281
     0
  0
CLASS
  1
SCALE
  2
AcDbScale
  3
ObjectDBX Classes
 90
     1153
280
     0
281
     0
  0
CLASS
  1
MLEADERSTYLE
  2
AcDbMLeaderStyle
  3
ACDB_MLEADERSTYLE_CLASS
 90
     4095
280
     0
281
     0
  0
CLASS
  1
CELLSTYLEMAP
  2
AcDbCellStyleMap
  3
ObjectDBX Classes
 90
     1152
280
     0
281
     0
  0
CLASS
  1
ACDBSECTIONVIEWSTYLE
  2
AcDbSectionViewStyle
  3
ObjectDBX Classes
 90
     1025
280
     0
281
     0
  0
CLASS
  1
ACDBDETAILVIEWSTYLE
  2
AcDbDetailViewStyle
  3
ObjectDBX Classes
 90
     1025
280
     0
281
     0
  0
ENDSEC
  0
SECTION
  2
TABLES
  0
TABLE
  2
VPORT
  5
1D
102
{ACAD_XDICTIONARY
360
547
102
}
330
0
100
AcDbSymbolTable
 70
     1
  0
VPORT
  5
492
330
1D
100
AcDbSymbolTableRecord
100
AcDbViewportTableRecord
  2
*Active
 70
     0
 10
0.0
 20
0.0
 11
1.0
 21
1.0
 12
-2022.641827973008
 22
77.84919698896956
 13
0.0
 23
0.0
 14
1.0
 24
1.0
 15
0.0
 25
0.0
 16
0.0
 26
0.0
 36
1.0
 17
0.0
 27
0.0
 37
0.0
 40
32.33003562337785
 41
1.943396226415094
 42
50.0
 43
0.0
 44
0.0
 50
0.0
 51
0.0
 71
     0
 72
   100
 73
     1
 74
     1
 75
     0
 76
     0
 77
     0
 78
     0
281
     0
 65
     1
110
0.0
120
0.0
130
0.0
111
1.0
121
0.0
131
0.0
112
0.0
122
1.0
132
0.0
 79
     0
146
0.0
1001
ACAD_NAV_VCDISPLAY
1070
     3
  0
ENDTAB
  0
TABLE
  2
LTYPE
  5
18
330
0
100
AcDbSymbolTable
 70
     4
  0
LTYPE
  5
19
330
18
100
AcDbSymbolTableRecord
100
AcDbLinetypeTableRecord
  2
ByBlock
 70
     0
  3

 72
    65
 73
     0
 40
0.0
  0
LTYPE
  5
1A
330
18
100
AcDbSymbolTableRecord
100
AcDbLinetypeTableRecord
  2
ByLayer
 70
     0
  3

 72
    65
 73
     0
 40
0.0
  0
LTYPE
  5
8
330
18
100
AcDbSymbolTableRecord
100
AcDbLinetypeTableRecord
  2
CONTINUOUS
 70
     0
  3
SolidLine
 72
    65
 73
     0
 40
0.0
  0
LTYPE
  5
159
330
18
100
AcDbSymbolTableRecord
100
AcDbLinetypeTableRecord
  2
CENTER2
 70
     0
  3
----------  --  ----------  --  
 72
    65
 73
     4
 40
20.0
 49
12.5
 74
     0
 49
-2.5
 74
     0
 49
2.5
 74
     0
 49
-2.5
 74
     0
  0
LTYPE
  5
15A
330
18
100
AcDbSymbolTableRecord
100
AcDbLinetypeTableRecord
  2
DASHED2
 70
     0
  3
----    ----    ----    ----    
 72
    65
 73
     2
 40
5.0
 49
2.5
 74
     0
 49
-2.5
 74
     0
  0
LTYPE
  5
15C
330
18
100
AcDbSymbolTableRecord
100
AcDbLinetypeTableRecord
  2
DASHED3
 70
     0
  3
------  ------  ------  ------  
 72
    65
 73
     2
 40
5.0
 49
3.75
 74
     0
 49
-1.25
 74
     0
  0
ENDTAB
  0
TABLE
  2
LAYER
  5
10
102
{ACAD_XDICTIONARY
360
11
102
}
330
0
100
AcDbSymbolTable
 70
     4
  0
LAYER
  5
4
102
{ACAD_XDICTIONARY
360
52D
102
}
330
10
100
AcDbSymbolTableRecord
100
AcDbLayerTableRecord
  2
0
 70
     0
 62
     1
  6
CONTINUOUS
370
    -3
390
5
  0
LAYER
  5
31
102
{ACAD_XDICTIONARY
360
537
102
}
330
10
100
AcDbSymbolTableRecord
100
AcDbLayerTableRecord
  2
SPC-TXT
 70
     0
 62
     7
  6
CONTINUOUS
370
    -3
390
5
  0
LAYER
  5
15D
102
{ACAD_XDICTIONARY
360
539
102
}
330
10
100
AcDbSymbolTableRecord
100
AcDbLayerTableRecord
  2
寸法
 70
     0
 62
     1
  6
CONTINUOUS
370
    -3
390
5
  0
LAYER
  5
15E
102
{ACAD_XDICTIONARY
360
53B
102
}
330
10
100
AcDbSymbolTableRecord
100
AcDbLayerTableRecord
  2
計画２
 70
     0
 62
     7
  6
CONTINUOUS
370
    -3
390
5
  0
ENDTAB
  0
TABLE
  2
STYLE
  5
14
330
0
100
AcDbSymbolTable
 70
     4
  0
STYLE
  5
15
330
14
100
AcDbSymbolTableRecord
100
AcDbTextStyleTableRecord
  2
Standard
 70
     0
 40
0.0
 41
1.0
 50
0.0
 71
     0
 42
0.2
  3

  4

1001
ACAD
1000
MS Gothic
1071
    32817
  0
STYLE
  5
22
330
14
100
AcDbSymbolTableRecord
100
AcDbTextStyleTableRecord
  2
ゴシック
 70
     0
 40
0.0
 41
1.0
 50
0.0
 71
     0
 42
2.24479851107421
  3

  4

1001
ACAD
1000
MS PGothic
1071
    32818
  0
STYLE
  5
160
330
14
100
AcDbSymbolTableRecord
100
AcDbTextStyleTableRecord
  2
Y06
 70
     0
 40
0.0
 41
0.6
 50
0.0
 71
     0
 42
400.0
  3
romans.shx
  4
bigfont.shx
  0
STYLE
  5
161
330
14
100
AcDbSymbolTableRecord
100
AcDbTextStyleTableRecord
  2
Y08
 70
     0
 40
0.0
 41
0.8
 50
0.0
 71
     0
 42
350.0
  3
romans.shx
  4
bigfont.shx
  0
ENDTAB
  0
TABLE
  2
VIEW
  5
1B
330
0
100
AcDbSymbolTable
 70
     0
  0
ENDTAB
  0
TABLE
  2
UCS
  5
1C
330
0
100
AcDbSymbolTable
 70
     0
  0
ENDTAB
  0
TABLE
  2
APPID
  5
1F
330
0
100
AcDbSymbolTable
 70
     5
  0
APPID
  5
16
330
1F
100
AcDbSymbolTableRecord
100
AcDbRegAppTableRecord
  2
ACAD
 70
     0
  0
APPID
  5
57D
330
1F
100
AcDbSymbolTableRecord
100
AcDbRegAppTableRecord
  2
ACAD_MLEADERVER
 70
     0
  0
APPID
  5
58A
330
1F
100
AcDbSymbolTableRecord
100
AcDbRegAppTableRecord
  2
Acad_TC
 70
     0
  0
APPID
  5
594
330
1F
100
AcDbSymbolTableRecord
100
AcDbRegAppTableRecord
  2
ACAD_NAV_VCDISPLAY
 70
     0
  0
APPID
  5
5E3
330
1F
100
AcDbSymbolTableRecord
100
AcDbRegAppTableRecord
  2
AcadAnnoPO
 70
     0
  0
ENDTAB
  0
TABLE
  2
DIMSTYLE
  5
20
330
0
100
AcDbSymbolTable
 70
     3
100
AcDbDimStyleTable
 71
     2
340
21
340
29
  0
DIMSTYLE
105
29
330
20
100
AcDbSymbolTableRecord
100
AcDbDimStyleTableRecord
  2
Standard
 70
     0
340
15
  0
DIMSTYLE
105
21
102
{ACAD_REACTORS
330
112
330
111
330
10E
330
11E
330
11A
330
13C
330
11F
330
12E
330
10C
330
12A
330
114
330
126
330
125
102
}
330
20
100
AcDbSymbolTableRecord
100
AcDbDimStyleTableRecord
  2
\U+FF7A\U+FF8B\U+FF9F\U+FF70 - Standard
 70
     0
 41
0.15
 42
0.25
 44
0.05
 73
     0
 74
     0
 77
     1
140
0.25
144
1000.0
147
0.01
176
   256
177
   256
271
     0
272
     0
279
     2
340
22
341
23
342
23
371
    -1
372
    -1
  0
DIMSTYLE
105
164
330
20
100
AcDbSymbolTableRecord
100
AcDbDimStyleTableRecord
  2
白100の1
 70
     0
 40
50.0
 41
2.5
 42
2.0
 43
0.7
 44
1.0
 73
     0
 74
     0
 77
     1
140
0.8
141
2.5
147
1.0
173
     1
176
     7
177
     7
178
     7
271
     0
272
     0
279
     1
340
160
341
23
343
23
344
23
  0
ENDTAB
  0
TABLE
  2
BLOCK_RECORD
  5
1
330
0
100
AcDbSymbolTable
 70
     1
  0
BLOCK_RECORD
  5
2
330
1
100
AcDbSymbolTableRecord
100
AcDbBlockTableRecord
  2
*Model_Space
340
A
  0
BLOCK_RECORD
  5
C
330
1
100
AcDbSymbolTableRecord
100
AcDbBlockTableRecord
  2
*Paper_Space
340
F
  0
BLOCK_RECORD
  5
23
330
1
100
AcDbSymbolTableRecord
100
AcDbBlockTableRecord
  2
_Open
340
0
  0
ENDTAB
  0
ENDSEC
  0
SECTION
  2
BLOCKS
  0
BLOCK
  5
3
330
2
100
AcDbEntity
  8
0
100
AcDbBlockBegin
  2
*Model_Space
 70
     0
 10
0.0
 20
0.0
 30
0.0
  3
*Model_Space
  1

  0
ENDBLK
  5
9
330
2
100
AcDbEntity
  8
0
100
AcDbBlockEnd
  0
BLOCK
  5
D
330
C
100
AcDbEntity
 67
     1
  8
0
100
AcDbBlockBegin
  2
*Paper_Space
 70
     0
 10
0.0
 20
0.0
 30
0.0
  3
*Paper_Space
  1

  0
ENDBLK
  5
E
330
C
100
AcDbEntity
 67
     1
  8
0
100
AcDbBlockEnd
  0
BLOCK
  5
24
330
23
100
AcDbEntity
  8
0
100
AcDbBlockBegin
  2
_Open
 70
     0
 10
0.0
 20
0.0
 30
0.0
  3
_Open
  1

  0
LINE
  5
25
330
23
100
AcDbEntity
  8
0
  6
ByBlock
 62
     0
370
    -2
100
AcDbLine
 10
-1.0
 20
0.1666666666666666
 30
0.0
 11
0.0
 21
0.0
 31
0.0
  0
LINE
  5
26
330
23
100
AcDbEntity
  8
0
  6
ByBlock
 62
     0
370
    -2
100
AcDbLine
 10
-1.0
 20
-0.1666666666666666
 30
0.0
 11
0.0
 21
0.0
 31
0.0
  0
LINE
  5
27
330
23
100
AcDbEntity
  8
0
  6
ByBlock
 62
     0
370
    -2
100
AcDbLine
 10
0.0
 20
0.0
 30
0.0
 11
-1.0
 21
0.0
 31
0.0
  0
ENDBLK
  5
28
330
23
100
AcDbEntity
  8
0
100
AcDbBlockEnd
  0
ENDSEC
  0
SECTION
  2
ENTITIES
  0
LEADER
  5
10C
330
2
100
AcDbEntity
  8
SPC-TXT
 62
     0
100
AcDbLeader
  3
\U+FF7A\U+FF8B\U+FF9F\U+FF70 - Standard
 76
     2
 10
-2033.854717424134
 20
82.29067620470051
 30
0.0
 10
-2037.841217278931
 20
82.29067620470051
 30
0.0
1001
ACAD
1000
DSTYLE
1002
{
1070
    77
1070
     0
1002
}
  0
TEXT
  5
10D
330
2
100
AcDbEntity
  8
SPC-TXT
 62
     0
100
AcDbText
 10
-2037.782070322012
 20
82.39261910462507
 30
0.0
 40
0.25
  1
⑲ サンドマット
100
AcDbText
  0
LEADER
  5
10E
330
2
100
AcDbEntity
  8
SPC-TXT
 62
     0
100
AcDbLeader
  3
\U+FF7A\U+FF8B\U+FF9F\U+FF70 - Standard
 76
     3
 10
-2022.89203781031
 20
68.43837786228895
 30
0.0
 10
-2021.761085247559
 20
67.03991174886258
 30
0.0
 10
-2018.877233098329
 20
67.03991174886258
 30
0.0
1001
ACAD
1000
DSTYLE
1002
{
1070
    77
1070
     0
1002
}
  0
TEXT
  5
10F
330
2
100
AcDbEntity
  8
SPC-TXT
 62
     0
100
AcDbText
 10
-2021.674052084577
 20
67.14556507387124
 30
0.0
 40
0.25
  1
基礎栗石 t=15cm
100
AcDbText
  0
TEXT
  5
110
330
2
100
AcDbEntity
  8
SPC-TXT
 62
     0
100
AcDbText
 10
-2021.659483592992
 20
67.64260250670358
 30
0.0
 40
0.25
  1
① 均しコンクリ－ト t=10cm
100
AcDbText
  0
LEADER
  5
111
330
2
100
AcDbEntity
  8
SPC-TXT
 62
     0
100
AcDbLeader
  3
\U+FF7A\U+FF8B\U+FF9F\U+FF70 - Standard
 76
     3
 10
-2022.596128716523
 20
68.56951249182363
 30
0.0
 10
-2021.761085247559
 20
67.53694929417296
 30
0.0
 10
-2016.858966828728
 20
67.53694929417296
 30
0.0
1001
ACAD
1000
DSTYLE
1002
{
1070
    77
1070
     0
1002
}
  0
LEADER
  5
112
330
2
100
AcDbEntity
  8
SPC-TXT
 62
     0
100
AcDbLeader
  3
\U+FF7A\U+FF8B\U+FF9F\U+FF70 - Standard
 76
     3
 10
-2023.135532372732
 20
67.65908863504768
 30
0.0
 10
-2022.206267561712
 20
66.51001714309066
 30
0.0
 10
-2018.225286500582
 20
66.51001714309066
 30
0.0
1001
ACAD
1000
DSTYLE
1002
{
1070
    77
1070
     0
1002
}
  0
TEXT
  5
113
330
2
100
AcDbEntity
  8
SPC-TXT
 62
     0
100
AcDbText
 10
-2022.0834171642
 20
66.599258462058
 30
0.0
 40
0.25
  1
④ カウンタ－アンカ－
100
AcDbText
  0
LEADER
  5
114
330
2
100
AcDbEntity
  8
SPC-TXT
 62
     0
100
AcDbLeader
  3
\U+FF7A\U+FF8B\U+FF9F\U+FF70 - Standard
 76
     3
 10
-2023.469119571611
 20
68.85103267993851
 30
0.0
 10
-2024.304163040576
 20
67.81846948228784
 30
0.0
 10
-2027.857616532017
 20
67.81846948228784
 30
0.0
211
-1.0
221
0.0
231
0.0
210
0.0
220
0.0
230
-1.0
1001
ACAD
1000
DSTYLE
1002
{
1070
    77
1070
     0
1002
}
  0
TEXT
  5
115
330
2
100
AcDbEntity
  8
SPC-TXT
 62
     0
100
AcDbText
 10
-2027.748926756132
 20
67.93016512679193
 30
0.0
 40
0.25
  1
⑤ 埋戻コンクリ－ト
100
AcDbText
  0
LEADER
  5
11A
330
2
100
AcDbEntity
  8
SPC-TXT
 62
     0
100
AcDbLeader
  3
\U+FF7A\U+FF8B\U+FF9F\U+FF70 - Standard
 76
     3
 10
-2022.682957055105
 20
68.98720192502165
 30
0.0
 10
-2021.89303291304
 20
69.96397334872229
 30
0.0
 10
-2019.17738338574
 20
69.96397334872229
 30
0.0
210
0.0
220
0.0
230
-1.0
1001
ACAD
1000
DSTYLE
1002
{
1070
    77
1070
     0
1002
}
  0
TEXT
  5
11B
330
2
100
AcDbEntity
  8
SPC-TXT
 62
     0
100
AcDbText
 10
-2021.852219789525
 20
70.08880136501884
 30
0.0
 40
0.25
  1
③ 基礎ブロック
100
AcDbText
  0
TEXT
  5
11D
330
2
100
AcDbEntity
  8
SPC-TXT
 62
     0
100
AcDbText
 10
-2031.805160469881
 20
78.02874059212695
 30
0.0
 40
0.25
  1
⑯ 気泡混合軽量盛土
100
AcDbText
  0
LEADER
  5
11E
330
2
100
AcDbEntity
  8
SPC-TXT
 62
     0
100
AcDbLeader
  3
\U+FF7A\U+FF8B\U+FF9F\U+FF70 - Standard
 76
     3
 10
-2025.057487138085
 20
74.9901619358723
 30
0.0
 10
-2024.276277333888
 20
75.95615774739332
 30
0.0
 10
-2022.036543060908
 20
75.95615774739332
 30
0.0
210
0.0
220
0.0
230
-1.0
1001
ACAD
1000
DSTYLE
1002
{
1070
    77
1070
     0
1002
}
  0
LEADER
  5
11F
330
2
100
AcDbEntity
  8
SPC-TXT
 62
     0
100
AcDbLeader
  3
\U+FF7A\U+FF8B\U+FF9F\U+FF70 - Standard
 76
     3
 10
-2028.84373728425
 20
79.59480955270141
 30
0.0
 10
-2029.488284862508
 20
80.88198664750718
 30
0.0
 10
-2026.186197489271
 20
80.88198664750718
 30
0.0
1001
ACAD
1000
DSTYLE
1002
{
1070
    77
1070
     0
1002
}
  0
TEXT
  5
120
330
2
100
AcDbEntity
  8
SPC-TXT
 62
     0
100
AcDbText
 10
-2028.192159671684
 20
80.98518665342572
 30
0.0
 40
0.25
  1
⑧ 補強鉄筋
100
AcDbText
  0
LEADER
  5
125
330
2
100
AcDbEntity
  8
SPC-TXT
 62
     0
100
AcDbLeader
  3
\U+FF7A\U+FF8B\U+FF9F\U+FF70 - Standard
 76
     3
 10
-2030.614246751031
 20
83.33054752586688
 30
0.0
 10
-2029.566900009541
 20
84.62563184259551
 30
0.0
 10
-2026.978142019598
 20
84.62563184259551
 30
0.0
210
0.0
220
0.0
230
-1.0
1001
ACAD
1000
DSTYLE
1002
{
1070
    77
1070
     0
1002
}
  0
LEADER
  5
126
330
2
100
AcDbEntity
  8
SPC-TXT
 62
     0
100
AcDbLeader
  3
\U+FF7A\U+FF8B\U+FF9F\U+FF70 - Standard
 76
     3
 10
-2030.725977764989
 20
84.45455710301281
 30
0.0
 10
-2029.527705038291
 20
85.74964141974144
 30
0.0
 10
-2027.025870906014
 20
85.74964141974144
 30
0.0
210
0.0
220
0.0
230
-1.0
1001
ACAD
1000
DSTYLE
1002
{
1070
    77
1070
     0
1002
}
  0
TEXT
  5
127
330
2
100
AcDbEntity
  8
SPC-TXT
 62
     0
100
AcDbText
 10
-2029.39473593002
 20
85.85922641410904
 30
0.0
 40
0.25
  1
⑱ 落石防護柵
100
AcDbText
  0
TEXT
  5
128
330
2
100
AcDbEntity
  8
SPC-TXT
 62
     0
100
AcDbText
 10
-2029.536820873073
 20
84.73521683696311
 30
0.0
 40
0.25
  1
落石防護柵基礎
100
AcDbText
  0
LEADER
  5
12A
330
2
100
AcDbEntity
  8
SPC-TXT
 62
     0
100
AcDbLeader
  3
\U+FF7A\U+FF8B\U+FF9F\U+FF70 - Standard
 76
     3
 10
-2027.779220529538
 20
74.49659763107593
 30
0.0
 10
-2028.329426875757
 20
73.81602434581328
 30
0.0
 10
-2031.285631105154
 20
73.81602434581328
 30
0.0
211
-1.0
221
0.0
231
0.0
210
0.0
220
0.0
230
-1.0
1001
ACAD
1000
DSTYLE
1002
{
1070
    77
1070
     0
1002
}
  0
TEXT
  5
12C
330
2
100
AcDbEntity
  8
SPC-TXT
 62
     0
100
AcDbText
 10
-2031.135437910373
 20
73.92771999031737
 30
0.0
 40
0.25
  1
⑩ 裏面排水
100
AcDbText
  0
TEXT
  5
12D
330
2
100
AcDbEntity
  8
SPC-TXT
 62
     0
100
AcDbText
 10
-2034.707300926223
 20
75.86945384731032
 30
0.0
 40
0.25
  1
⑪ モルタル吹付
100
AcDbText
  0
LEADER
  5
12E
330
2
100
AcDbEntity
  8
SPC-TXT
 62
     0
100
AcDbLeader
  3
\U+FF7A\U+FF8B\U+FF9F\U+FF70 - Standard
 76
     3
 10
-2030.010710843558
 20
76.4480842326484
 30
0.0
 10
-2030.560917189778
 20
75.76751094738574
 30
0.0
 10
-2034.800878203887
 20
75.76751094738574
 30
0.0
211
-1.0
221
0.0
231
0.0
210
0.0
220
0.0
230
-1.0
1001
ACAD
1000
DSTYLE
1002
{
1070
    77
1070
     0
1002
}
  0
LEADER
  5
13C
330
2
100
AcDbEntity
  8
SPC-TXT
 62
     0
100
AcDbLeader
  3
\U+FF7A\U+FF8B\U+FF9F\U+FF70 - Standard
 76
     2
 10
-2024.505045927217
 20
73.55495906570013
 30
0.0
 10
-2018.795017570672
 20
73.55495906570013
 30
0.0
1001
ACAD
1000
DSTYLE
1002
{
1070
    77
1070
     0
1002
}
  0
TEXT
  5
13D
330
2
100
AcDbEntity
  8
SPC-TXT
 62
     0
100
AcDbText
 10
-2023.483666010587
 20
73.66936992972433
 30
0.0
 40
0.25
  1
SPCウォール版（受圧板兼用）
100
AcDbText
  0
TEXT
  5
13E
330
2
100
AcDbEntity
  8
SPC-TXT
 62
     0
100
AcDbText
 10
-2024.272298742072
 20
76.08098576368988
 30
0.0
 40
0.25
  1
⑥ SPCパネル
100
AcDbText
  0
LEADER
  5
13F
330
2
100
AcDbEntity
  8
SPC-TXT
 62
     0
100
AcDbLeader
  3
\U+FF7A\U+FF8B\U+FF9F\U+FF70 - Standard
 76
     2
 10
-2029.456108184818
 20
81.68622986639039
 30
0.0
 10
-2026.412110317572
 20
81.68622986639039
 30
0.0
1001
ACAD
1000
DSTYLE
1002
{
1070
    77
1070
     0
1002
}
  0
TEXT
  5
140
330
2
100
AcDbEntity
  8
SPC-TXT
 62
     0
100
AcDbText
 10
-2028.137836508273
 20
81.79599471311977
 30
0.0
 40
0.25
  1
⑦ PC鋼棒
100
AcDbText
  0
LEADER
  5
141
330
2
100
AcDbEntity
  8
SPC-TXT
 62
     0
100
AcDbLeader
  3
\U+FF7A\U+FF8B\U+FF9F\U+FF70 - Standard
 76
     3
 10
-2039.273918331069
 20
75.41386075687478
 30
0.0
 10
-2040.0168943288
 20
75.85539117343543
 30
0.0
 10
-2043.622720827855
 20
75.85539117343543
 30
0.0
211
-1.0
221
0.0
231
0.0
210
0.0
220
0.0
230
-1.0
1001
ACAD
1000
DSTYLE
1002
{
1070
    77
1070
     0
1002
}
  0
TEXT
  5
142
330
2
100
AcDbEntity
  8
SPC-TXT
 62
     0
100
AcDbText
 10
-2043.474436810395
 20
75.95733407336002
 30
0.0
 40
0.25
  1
⑰ グランドアンカー
100
AcDbText
  0
LEADER
  5
145
330
2
100
AcDbEntity
  8
SPC-TXT
 62
     0
100
AcDbLeader
  3
\U+FF7A\U+FF8B\U+FF9F\U+FF70 - Standard
 76
     3
 10
-2023.204717325814
 20
68.58753014220929
 30
0.0
 10
-2024.305130018253
 20
67.22638357168398
 30
0.0
 10
-2027.772749004245
 20
67.22638357168398
 30
0.0
211
-1.0
221
0.0
231
0.0
210
0.0
220
0.0
230
-1.0
1001
ACAD
1000
DSTYLE
1002
{
1070
    77
1070
     0
1002
}
  0
TEXT
  5
146
330
2
100
AcDbEntity
  8
SPC-TXT
 62
     0
100
AcDbText
 10
-2027.693910088128
 20
67.33807921618808
 30
0.0
 40
0.25
  1
② 敷モルタル
100
AcDbText
  0
TEXT
  5
147
330
2
100
AcDbEntity
  8
SPC-TXT
 62
     0
100
AcDbText
 10
-2037.999280204036
 20
88.22956244477898
 30
0.0
 40
0.4
  1
落石覆工方式（グランドアンカー使用の例）参考断面図
 72
     4
 11
-2031.501818275103
 21
88.42245584579421
 31
0.0
100
AcDbText
  0
LINE
  5
148
330
2
100
AcDbEntity
  8
SPC-TXT
100
AcDbLine
 10
-2038.965196823306
 20
88.89842602851638
 30
0.0
 11
-2024.014958717804
 21
88.89842602851638
 31
0.0
  0
TEXT
  5
149
330
2
100
AcDbEntity
  8
SPC-TXT
 62
     0
100
AcDbText
 10
-2033.840904569519
 20
89.2181092528401
 30
0.0
 40
0.4
  1
S.P.C.ウォール工法
 72
     4
 11
-2031.501818275103
 21
89.39983514116496
 31
0.0
100
AcDbText
  0
LEADER
  5
2DA
330
2
100
AcDbEntity
  8
0
  6
ByBlock
 62
     7
100
AcDbLeader
  3
白100の1
 76
     2
 10
-2027.949522814054
 20
77.80582407300908
 30
0.0
 10
-2028.396736498764
 20
78.70025723048707
 30
0.0
213
0.0
223
0.04
233
0.0
1001
ACAD
1000
DSTYLE
1002
{
1070
    77
1070
     0
1002
}
  0
LEADER
  5
2DB
330
2
100
AcDbEntity
  8
0
  6
ByBlock
 62
     7
100
AcDbLeader
  3
白100の1
 76
     2
 10
-2028.396733577411
 20
78.70025138774224
 30
0.0
 10
-2028.843947262121
 20
79.59468454522022
 30
0.0
213
0.0
223
0.04
233
0.0
1001
ACAD
1000
DSTYLE
1002
{
1070
    77
1070
     0
1002
}
  0
LEADER
  5
2DC
330
2
100
AcDbEntity
  8
0
  6
ByBlock
 62
     7
100
AcDbLeader
  3
白100の1
 76
     2
 10
-2030.186969632305
 20
82.27727702250794
 30
0.0
 10
-2028.84373728425
 20
79.59480955270141
 30
0.0
211
0.5987637741472918
221
0.8009256786799204
231
0.0
210
0.0
220
0.0
230
-1.0
213
0.0320370271471968
223
-0.0239505509658917
233
0.0
1001
ACAD
1000
DSTYLE
1002
{
1070
    41
1040
2.5
1070
   147
1040
1.0
1070
    77
1070
     0
1002
}
  0
CIRCLE
  5
2E0
330
2
100
AcDbEntity
  8
0
 62
     7
100
AcDbCircle
 10
-2026.645898108032
 20
76.51148486318273
 30
0.0
 40
0.0212830691362556
  0
CIRCLE
  5
2E1
330
2
100
AcDbEntity
  8
0
 62
     7
100
AcDbCircle
 10
-2026.645898108032
 20
76.51148486318273
 30
0.0
 40
0.0312830691362556
  0
CIRCLE
  5
2E2
330
2
100
AcDbEntity
  8
0
 62
     7
100
AcDbCircle
 10
-2026.645898108032
 20
76.51148486318273
 30
0.0
 40
0.0412830691362556
  0
CIRCLE
  5
2E3
330
2
100
AcDbEntity
  8
0
 62
     7
100
AcDbCircle
 10
-2026.645898108032
 20
76.51148486318273
 30
0.0
 40
0.0512830691362556
  0
CIRCLE
  5
2E4
330
2
100
AcDbEntity
  8
0
 62
     7
100
AcDbCircle
 10
-2026.645898108032
 20
76.51148486318273
 30
0.0
 40
0.0412830691362556
  0
CIRCLE
  5
2E5
330
2
100
AcDbEntity
  8
0
 62
     7
100
AcDbCircle
 10
-2026.307997764989
 20
76.50344336318244
 30
0.0
 40
0.0212830691362556
  0
CIRCLE
  5
2E6
330
2
100
AcDbEntity
  8
0
 62
     7
100
AcDbCircle
 10
-2026.307997764989
 20
76.50344336318244
 30
0.0
 40
0.0412830691362556
  0
CIRCLE
  5
2E7
330
2
100
AcDbEntity
  8
0
 62
     7
100
AcDbCircle
 10
-2026.307997764989
 20
76.50344336318244
 30
0.0
 40
0.0312830691362556
  0
CIRCLE
  5
2E8
330
2
100
AcDbEntity
  8
0
 62
     7
100
AcDbCircle
 10
-2026.307997764989
 20
76.50344336318244
 30
0.0
 40
0.0512830691362556
  0
CIRCLE
  5
2E9
330
2
100
AcDbEntity
  8
0
 62
     7
100
AcDbCircle
 10
-2026.307997764989
 20
76.50344336318244
 30
0.0
 40
0.0412830691362556
  0
LINE
  5
2EA
330
2
100
AcDbEntity
  8
寸法
 62
     7
100
AcDbLine
 10
-2026.307997764989
 20
76.50344336318244
 30
0.0
 11
-2025.184990120432
 21
77.26992416710193
 31
0.0
  0
LINE
  5
2EB
330
2
100
AcDbEntity
  8
寸法
 62
     7
100
AcDbLine
 10
-2026.645898108032
 20
76.51148486318273
 30
0.0
 11
-2026.026920891447
 21
78.47756264607558
 31
0.0
  0
TEXT
  5
2EC
330
2
100
AcDbEntity
  8
寸法
 62
     7
100
AcDbText
 10
-2025.814323768107
 20
78.53237435187046
 30
0.0
 40
0.3
  1
Ｂ型基礎ブロック
 41
0.8
  7
Y08
100
AcDbText
  0
LINE
  5
2ED
330
2
100
AcDbEntity
  8
寸法
 62
     7
100
AcDbLine
 10
-2026.026920891447
 20
78.47756264607558
 30
0.0
 11
-2022.791570540138
 21
78.47756264607558
 31
0.0
  0
LINE
  5
2EE
330
2
100
AcDbEntity
  8
寸法
 62
     7
100
AcDbLine
 10
-2025.184990120432
 20
77.26992416710193
 30
0.0
 11
-2023.012912030837
 21
77.26992416710193
 31
0.0
  0
TEXT
  5
2EF
330
2
100
AcDbEntity
  8
寸法
 62
     7
100
AcDbText
 10
-2025.014234921109
 20
77.3301173666487
 30
0.0
 40
0.3
  1
小段排水工
 41
0.8
  7
Y08
100
AcDbText
  0
LINE
  5
2F8
330
2
100
AcDbEntity
  8
計画２
  6
Continuous
 62
     7
100
AcDbLine
 10
-2034.779427764989
 20
83.49409636318236
 30
0.0
 11
-2034.689587764989
 21
83.21764736318234
 31
0.0
  0
CIRCLE
  5
2F9
330
2
100
AcDbEntity
  8
計画２
  6
Continuous
 62
     7
100
AcDbCircle
 10
-2034.772097764989
 20
83.26009636318238
 30
0.0
 40
0.0050000003
  0
CIRCLE
  5
2FA
330
2
100
AcDbEntity
  8
計画２
  6
Continuous
 62
     7
100
AcDbCircle
 10
-2034.694427764989
 20
83.19710236318242
 30
0.0
 40
0.0050000003
  0
CIRCLE
  5
2FB
330
2
100
AcDbEntity
  8
計画２
  6
Continuous
 62
     7
100
AcDbCircle
 10
-2034.786787764989
 20
83.40074536318256
 30
0.0
 40
0.0050000003
  0
CIRCLE
  5
2FC
330
2
100
AcDbEntity
  8
計画２
  6
Continuous
 62
     7
100
AcDbCircle
 10
-2035.02082776499
 20
84.27926836318262
 30
0.0
 40
0.0050000003
  0
LINE
  5
2FD
330
2
100
AcDbEntity
  8
計画２
  6
Continuous
 62
     7
100
AcDbLine
 10
-2035.030667764989
 20
84.44045436318239
 30
0.0
 11
-2034.961287764989
 21
84.17200636318254
 31
0.0
  0
LINE
  5
2FE
330
2
100
AcDbEntity
  8
計画２
  6
Continuous
 62
     7
100
AcDbLine
 10
-2030.87601776499
 20
83.15883736318253
 30
0.0
 11
-2030.87601776499
 21
85.2088543631825
 31
0.0
  0
LINE
  5
2FF
330
2
100
AcDbEntity
  8
計画２
  6
Continuous
 62
     7
100
AcDbLine
 10
-2030.725977764989
 20
83.15883736318253
 30
0.0
 11
-2030.725977764989
 21
85.2088543631825
 31
0.0
  0
LINE
  5
300
330
2
100
AcDbEntity
  8
計画２
  6
Continuous
 62
     7
100
AcDbLine
 10
-2030.725977764989
 20
83.15883736318253
 30
0.0
 11
-2030.87601776499
 21
83.15883736318253
 31
0.0
  0
LINE
  5
301
330
2
100
AcDbEntity
  8
計画２
  6
Continuous
 62
     7
100
AcDbLine
 10
-2030.550987764989
 20
83.65884936318238
 30
0.0
 11
-2031.051007764989
 21
83.65884936318238
 31
0.0
  0
LINE
  5
302
330
2
100
AcDbEntity
  8
計画２
  6
Continuous
 62
     7
100
AcDbLine
 10
-2030.87601776499
 20
85.2088543631825
 30
0.0
 11
-2030.725977764989
 21
85.2088543631825
 31
0.0
  0
LINE
  5
303
330
2
100
AcDbEntity
  8
計画２
  6
Continuous
 62
     7
100
AcDbLine
 10
-2030.335697764989
 20
83.65883436318249
 30
0.0
 11
-2030.505657764989
 21
83.57386636318237
 31
0.0
  0
LINE
  5
304
330
2
100
AcDbEntity
  8
計画２
  6
Continuous
 62
     7
100
AcDbLine
 10
-2030.33572776499
 20
83.65884936318238
 30
0.0
 11
-2030.550987764989
 21
83.65884936318238
 31
0.0
  0
LWPOLYLINE
  5
305
330
2
100
AcDbEntity
  8
計画２
  6
ByBlock
 62
     7
100
AcDbPolyline
 90
        2
 70
     1
 43
0.0035
 10
-2031.265141713139
 20
83.29146321909474
 42
1.0
 10
-2031.260641713139
 20
83.29146321909474
 42
1.0
  0
CIRCLE
  5
306
330
2
100
AcDbEntity
  8
計画２
  6
Continuous
 62
     7
100
AcDbCircle
 10
-2035.127867764989
 20
84.6235673631825
 30
0.0
 40
0.0050000003
  0
CIRCLE
  5
307
330
2
100
AcDbEntity
  8
計画２
  6
Continuous
 62
     7
100
AcDbCircle
 10
-2035.113177764989
 20
84.48290336318239
 30
0.0
 40
0.0050000003
  0
LINE
  5
308
330
2
100
AcDbEntity
  8
計画２
  6
Continuous
 62
     7
100
AcDbLine
 10
-2035.299667764989
 20
85.46611436318253
 30
0.0
 11
-2035.243007764989
 21
85.2516653631825
 31
0.0
  0
CIRCLE
  5
309
330
2
100
AcDbEntity
  8
計画２
  6
Continuous
 62
     7
100
AcDbCircle
 10
-2035.035507764989
 20
84.41991436318236
 30
0.0
 40
0.0050000003
  0
LINE
  5
30A
330
2
100
AcDbEntity
  8
計画２
  6
Continuous
 62
     7
100
AcDbLine
 10
-2035.120487764989
 20
84.71691336318263
 30
0.0
 11
-2035.030667764989
 21
84.44045436318239
 31
0.0
  0
LINE
  5
30C
330
2
100
AcDbEntity
  8
計画２
  6
Continuous
 62
     7
100
AcDbLine
 10
-2023.529587764989
 20
70.93259036318254
 30
0.0
 11
-2023.715267764989
 21
70.85832936318237
 31
0.0
  0
ARC
  5
30D
330
2
100
AcDbEntity
  8
計画２
  6
Continuous
 62
     7
370
     0
100
AcDbCircle
 10
-2024.458096846627
 20
73.25377531838459
 30
0.0
 40
0.1543680176566704
100
AcDbArc
 50
291.5649999999589
 51
111.5649999999589
  0
LINE
  5
30E
330
2
100
AcDbEntity
  8
計画２
  6
Continuous
 62
     7
370
     0
100
AcDbLine
 10
-2024.411579170399
 20
73.27216010675178
 30
0.0
 11
-2024.458079229743
 21
73.25378228095658
 31
0.0
  0
LINE
  5
30F
330
2
100
AcDbEntity
  8
計画２
  6
ByBlock
 62
     7
100
AcDbLine
 10
-2024.643837764989
 20
73.71799736318243
 30
0.0
 11
-2024.272320694497
 21
72.78956719873097
 31
0.0
  0
LINE
  5
310
330
2
100
AcDbEntity
  8
計画２
  6
Continuous
 62
     7
100
AcDbLine
 10
-2024.643837764989
 20
73.71799736318243
 30
0.0
 11
-2024.829517764989
 21
73.64373636318251
 31
0.0
  0
LINE
  5
311
330
2
100
AcDbEntity
  8
計画２
  6
Continuous
 62
     7
100
AcDbLine
 10
-2023.900967764989
 20
71.86107936318236
 30
0.0
 11
-2024.086647764989
 21
71.78678836318264
 31
0.0
  0
LINE
  5
312
330
2
100
AcDbEntity
  8
計画２
  6
Continuous
 62
     7
100
AcDbLine
 10
-2024.272367764989
 20
72.78954836318241
 30
0.0
 11
-2024.458047764989
 21
72.71524736318244
 31
0.0
  0
LINE
  5
313
330
2
100
AcDbEntity
  8
0
  6
ByBlock
 62
     7
100
AcDbLine
 10
-2024.841538263965
 20
72.30902018768175
 30
0.0
 11
-2024.750740164018
 21
72.13081888284404
 31
0.0
  0
LINE
  5
314
330
2
100
AcDbEntity
  8
0
  6
ByBlock
 62
     7
100
AcDbLine
 10
-2024.350635951897
 20
72.44691478513281
 30
0.0
 11
-2024.796139213991
 21
72.21991953526295
 31
0.0
  0
LINE
  5
318
330
2
100
AcDbEntity
  8
計画２
  6
Continuous
 62
     7
100
AcDbLine
 10
-2025.386737764989
 20
75.5749743631824
 30
0.0
 11
-2025.572417764989
 21
75.50070336318268
 31
0.0
  0
LINE
  5
319
330
2
100
AcDbEntity
  8
計画２
  6
Continuous
 62
     7
100
AcDbLine
 10
-2025.015277764989
 20
74.64648536318233
 30
0.0
 11
-2025.200957764989
 21
74.57222436318239
 31
0.0
  0
LINE
  5
31A
330
2
100
AcDbEntity
  8
0
  6
ByBlock
 62
     7
100
AcDbLine
 10
-2025.933577340921
 20
75.10576240662269
 30
0.0
 11
-2025.842779240973
 21
74.92756110178508
 31
0.0
  0
LINE
  5
31B
330
2
100
AcDbEntity
  8
0
  6
ByBlock
 62
     7
100
AcDbLine
 10
-2025.562124537078
 20
74.17731338077544
 30
0.0
 11
-2025.471326437131
 21
73.99911207593773
 31
0.0
  0
LINE
  5
31C
330
2
100
AcDbEntity
  8
計画２
  6
Continuous
 62
     7
100
AcDbLine
 10
-2026.932937764989
 20
76.41846036318243
 30
0.0
 11
-2026.932937764989
 21
76.05343836318255
 31
0.0
  0
LINE
  5
31D
330
2
100
AcDbEntity
  8
計画２
  6
Continuous
 62
     7
100
AcDbLine
 10
-2026.532977764989
 20
76.50344336318244
 30
0.0
 11
-2026.532977764989
 21
76.05343836318255
 31
0.0
  0
LINE
  5
31E
330
2
100
AcDbEntity
  8
計画２
  6
Continuous
 62
     7
100
AcDbLine
 10
-2026.532977764989
 20
76.05343836318255
 30
0.0
 11
-2026.932937764989
 21
76.05343836318255
 31
0.0
  0
ARC
  5
31F
330
2
100
AcDbEntity
  8
計画２
  6
Continuous
 62
     7
100
AcDbCircle
 10
-2026.307997764989
 20
76.50344336318244
 30
0.0
 40
0.15000003
100
AcDbArc
 50
180.0
 51
0.000000000000007
  0
LINE
  5
320
330
2
100
AcDbEntity
  8
計画２
  6
Continuous
 62
     7
100
AcDbLine
 10
-2025.758027764989
 20
76.50344336318244
 30
0.0
 11
-2026.157967764989
 21
76.50344336318244
 31
0.0
  0
LINE
  5
321
330
2
100
AcDbEntity
  8
計画２
  6
Continuous
 62
     7
100
AcDbLine
 10
-2026.927987764989
 20
76.41846036318243
 30
0.0
 11
-2026.932937764989
 21
76.41846036318243
 31
0.0
  0
LINE
  5
322
330
2
100
AcDbEntity
  8
計画２
  6
Continuous
 62
     7
100
AcDbLine
 10
-2026.758017764989
 20
76.50344336318244
 30
0.0
 11
-2026.927987764989
 21
76.41846036318243
 31
0.0
  0
LINE
  5
323
330
2
100
AcDbEntity
  8
計画２
  6
Continuous
 62
     7
100
AcDbLine
 10
-2026.758017764989
 20
76.50344336318244
 30
0.0
 11
-2026.927957764989
 21
76.41846036318243
 31
0.0
  0
LINE
  5
324
330
2
100
AcDbEntity
  8
計画２
  6
Continuous
 62
     7
100
AcDbLine
 10
-2026.758017764989
 20
76.50344336318244
 30
0.0
 11
-2026.457977764989
 21
76.50344336318244
 31
0.0
  0
LINE
  5
325
330
2
100
AcDbEntity
  8
計画２
  6
Continuous
 62
     7
100
AcDbLine
 10
-2026.457977764989
 20
76.50344336318244
 30
0.0
 11
-2026.758017764989
 21
76.50344336318244
 31
0.0
  0
LINE
  5
326
330
2
100
AcDbEntity
  8
計画２
  6
Continuous
 62
     7
100
AcDbLine
 10
-2025.758027764989
 20
76.50344336318244
 30
0.0
 11
-2025.943707764989
 21
76.42916236318247
 31
0.0
  0
LINE
  5
327
330
2
100
AcDbEntity
  8
計画２
  6
Continuous
 62
     7
100
AcDbLine
 10
-2027.205237764989
 20
77.39785836318247
 30
0.0
 11
-2027.375177764989
 21
77.31288036318236
 31
0.0
  0
LINE
  5
328
330
2
100
AcDbEntity
  8
0
  6
ByBlock
 62
     7
100
AcDbLine
 10
-2025.464825480713
 20
75.23237078513247
 30
0.0
 11
-2025.888178290947
 21
75.01666175420389
 31
0.0
  0
LINE
  5
329
330
2
100
AcDbEntity
  8
0
  6
ByBlock
 62
     7
100
AcDbLine
 10
-2025.093431504458
 20
74.30389178513289
 30
0.0
 11
-2025.516725487104
 21
74.08821272835663
 31
0.0
  0
LINE
  5
32A
330
2
100
AcDbEntity
  8
計画２
  6
Continuous
 62
     7
100
AcDbLine
 10
-2028.099647764989
 20
79.18670836318256
 30
0.0
 11
-2028.269607764989
 21
79.10174536318258
 31
0.0
  0
LINE
  5
32B
330
2
100
AcDbEntity
  8
計画２
  6
Continuous
 62
     7
100
AcDbLine
 10
-2027.213517764989
 20
73.4904103631826
 30
0.0
 11
-2027.987597764989
 21
75.19942136318255
 31
0.0
  0
LINE
  5
32C
330
2
100
AcDbEntity
  8
計画２
  6
Continuous
 62
     7
100
AcDbLine
 10
-2027.256747764989
 20
73.46468336318267
 30
0.0
 11
-2028.02674776499
 21
75.16468636318268
 31
0.0
  0
LINE
  5
32D
330
2
100
AcDbEntity
  8
計画２
  6
Continuous
 62
     7
100
AcDbLine
 10
-2027.652437764989
 20
78.29228836318264
 30
0.0
 11
-2027.822387764989
 21
78.20732036318254
 31
0.0
  0
TEXT
  5
330
330
2
100
AcDbEntity
  8
寸法
 62
     7
100
AcDbText
 10
-2024.223465813121
 20
73.4255735127206
 30
0.0
 40
0.3
  1
1:0.4
 50
291.9293593976373
 41
0.8
  7
Y08
100
AcDbText
  0
TEXT
  5
331
330
2
100
AcDbEntity
  8
寸法
 62
     7
100
AcDbText
 10
-2028.503104152743
 20
80.50286239735481
 30
0.0
 40
0.3
  1
1:0.5
 50
294.97333414358
 41
0.8
  7
Y08
100
AcDbText
  0
LINE
  5
332
330
2
100
AcDbEntity
  8
計画２
 62
     7
100
AcDbLine
 10
-2021.352916108452
 20
69.08358436318249
 30
0.0
 11
-2021.157864126781
 21
68.92359055612883
 31
0.0
  0
LINE
  5
333
330
2
100
AcDbEntity
  8
計画２
  6
DASHED3
 62
     7
 48
40.0
100
AcDbLine
 10
-2021.846747764989
 20
68.49067836318252
 30
0.0
 11
-2021.577307764989
 21
69.02957636318259
 31
0.0
  0
LINE
  5
334
330
2
100
AcDbEntity
  8
計画２
  6
Continuous
 62
     7
100
AcDbLine
 10
-2021.966747764989
 20
69.07568536318251
 30
0.0
 11
-2021.966747764989
 21
68.93568636318244
 31
0.0
  0
LINE
  5
335
330
2
100
AcDbEntity
  8
計画２
  6
Continuous
 62
     7
100
AcDbLine
 10
-2021.946747764989
 20
68.59068736318261
 30
0.0
 11
-2021.946747764989
 21
68.49068536318252
 31
0.0
  0
LINE
  5
336
330
2
100
AcDbEntity
  8
計画２
  6
Continuous
 62
     7
100
AcDbLine
 10
-2021.946747764989
 20
68.49067836318252
 30
0.0
 11
-2021.846747764989
 21
68.49067836318252
 31
0.0
  0
LINE
  5
337
330
2
100
AcDbEntity
  8
計画２
  6
Continuous
 62
     7
100
AcDbLine
 10
-2021.966747764989
 20
69.02568336318243
 30
0.0
 11
-2021.466747764989
 21
69.03068136318255
 31
0.0
  0
LINE
  5
338
330
2
100
AcDbEntity
  8
計画２
  6
Continuous
 62
     7
100
AcDbLine
 10
-2021.966747764989
 20
69.07568536318251
 30
0.0
 11
-2021.466747764989
 21
69.08068336318243
 31
0.0
  0
LINE
  5
339
330
2
100
AcDbEntity
  8
計画２
  6
Continuous
 62
     7
100
AcDbLine
 10
-2021.466747764989
 20
69.08068336318243
 30
0.0
 11
-2021.466747764989
 21
69.03068136318255
 31
0.0
  0
LINE
  5
33A
330
2
100
AcDbEntity
  8
計画２
  6
Continuous
 62
     7
100
AcDbLine
 10
-2022.021757764989
 20
68.98068536318252
 30
0.0
 11
-2022.01674776499
 21
69.07568536318251
 31
0.0
  0
LINE
  5
33B
330
2
100
AcDbEntity
  8
計画２
  6
Continuous
 62
     7
100
AcDbLine
 10
-2022.02574776499
 20
68.98068536318252
 30
0.0
 11
-2022.020737764989
 21
69.07568536318251
 31
0.0
  0
ARC
  5
33C
330
2
100
AcDbEntity
  8
計画２
  6
Continuous
 62
     7
100
AcDbCircle
 10
-2022.11576776499
 20
68.71068836318254
 30
0.0
 40
0.030000005
100
AcDbArc
 50
270.0
 51
358.0908199984228
  0
LINE
  5
33D
330
2
100
AcDbEntity
  8
計画２
  6
Continuous
 62
     7
100
AcDbLine
 10
-2022.01674776499
 20
68.88568436318258
 30
0.0
 11
-2022.01674776499
 21
68.65068336318244
 31
0.0
  0
LINE
  5
33E
330
2
100
AcDbEntity
  8
計画２
  6
Continuous
 62
     7
100
AcDbLine
 10
-2022.046747764989
 20
68.62068936318246
 30
0.0
 11
-2022.01674776499
 21
68.65068336318244
 31
0.0
  0
LINE
  5
33F
330
2
100
AcDbEntity
  8
計画２
  6
Continuous
 62
     7
100
AcDbLine
 10
-2022.085777764989
 20
68.70968636318244
 30
0.0
 11
-2022.076737764989
 21
68.98068536318252
 31
0.0
  0
LINE
  5
340
330
2
100
AcDbEntity
  8
計画２
  6
Continuous
 62
     7
100
AcDbLine
 10
-2022.046747764989
 20
68.59068736318261
 30
0.0
 11
-2022.046747764989
 21
68.62068936318246
 31
0.0
  0
LINE
  5
341
330
2
100
AcDbEntity
  8
計画２
  6
Continuous
 62
     7
100
AcDbLine
 10
-2021.966747764989
 20
68.93568636318244
 30
0.0
 11
-2022.01674776499
 21
68.88568436318258
 31
0.0
  0
LINE
  5
342
330
2
100
AcDbEntity
  8
計画２
  6
Continuous
 62
     7
100
AcDbLine
 10
-2022.01674776499
 20
69.07568536318251
 30
0.0
 11
-2021.966747764989
 21
69.07568536318251
 31
0.0
  0
LINE
  5
384
330
2
100
AcDbEntity
  8
計画２
  6
Continuous
 62
     7
100
AcDbLine
 10
-2023.775077764989
 20
69.00139136318253
 30
0.0
 11
-2022.972417764989
 21
69.00139136318253
 31
0.0
  0
LINE
  5
385
330
2
100
AcDbEntity
  8
計画２
  6
Continuous
 62
     7
100
AcDbLine
 10
-2023.461747764989
 20
68.36565336318241
 30
0.0
 11
-2022.461717764989
 21
68.36565336318241
 31
0.0
  0
LINE
  5
386
330
2
100
AcDbEntity
  8
計画２
  6
Continuous
 62
     7
100
AcDbLine
 10
-2023.461747764989
 20
68.51565636318241
 30
0.0
 11
-2022.461717764989
 21
68.51565636318241
 31
0.0
  0
LINE
  5
387
330
2
100
AcDbEntity
  8
計画２
  6
Continuous
 62
     7
100
AcDbLine
 10
-2023.461747764989
 20
68.61565836318252
 30
0.0
 11
-2022.461717764989
 21
68.61565836318252
 31
0.0
  0
LINE
  5
388
330
2
100
AcDbEntity
  8
計画２
  6
Continuous
 62
     7
100
AcDbLine
 10
-2023.1814977961
 20
69.0133907245397
 30
0.0
 11
-2023.0314976461
 21
69.0133907245397
 31
0.0
  0
LINE
  5
389
330
2
100
AcDbEntity
  8
計画２
  6
Continuous
 62
     7
100
AcDbLine
 10
-2022.561767764989
 20
68.62567536318252
 30
0.0
 11
-2023.361747764989
 21
68.62567536318252
 31
0.0
  0
LINE
  5
38A
330
2
100
AcDbEntity
  8
計画２
  6
Continuous
 62
     7
100
AcDbLine
 10
-2023.03523776499
 20
69.07568536318251
 30
0.0
 11
-2023.235257764989
 21
69.07568536318251
 31
0.0
  0
LINE
  5
38B
330
2
100
AcDbEntity
  8
計画２
  6
Continuous
 62
     7
100
AcDbLine
 10
-2023.158157764989
 20
70.00414136318252
 30
0.0
 11
-2023.343807764989
 21
69.92984036318232
 31
0.0
  0
LINE
  5
38D
330
2
100
AcDbEntity
  8
計画２
  6
Continuous
 62
     7
100
AcDbLine
 10
-2023.235257764989
 20
69.07568536318251
 30
0.0
 11
-2023.933600202967
 21
69.14829990490513
 31
0.0
  0
LINE
  5
38E
330
2
100
AcDbEntity
  8
計画２
  6
Continuous
 62
     7
100
AcDbLine
 10
-2023.461747764989
 20
68.51565636318241
 30
0.0
 11
-2023.461747764989
 21
68.36565336318241
 31
0.0
  0
LINE
  5
391
330
2
100
AcDbEntity
  8
計画２
  6
Continuous
 62
     7
100
AcDbLine
 10
-2023.820425505696
 20
69.13653185483396
 30
0.0
 11
-2023.561737764989
 21
68.36565336318241
 31
0.0
  0
LINE
  5
392
330
2
100
AcDbEntity
  8
計画２
  6
Continuous
 62
     7
100
AcDbLine
 10
-2023.933600202967
 20
69.14829990490513
 30
0.0
 11
-2024.196747764989
 21
69.42468536318251
 31
0.0
  0
LINE
  5
393
330
2
100
AcDbEntity
  8
計画２
  6
Continuous
 62
     7
100
AcDbLine
 10
-2023.461747764989
 20
68.61565836318252
 30
0.0
 11
-2023.461747764989
 21
68.51565636318241
 31
0.0
  0
LINE
  5
394
330
2
100
AcDbEntity
  8
計画２
  6
Continuous
 62
     7
100
AcDbLine
 10
-2023.461747764989
 20
68.36565336318241
 30
0.0
 11
-2023.561737764989
 21
68.36565336318241
 31
0.0
  0
LINE
  5
396
330
2
100
AcDbEntity
  8
計画２
  6
Continuous
 62
     7
100
AcDbLine
 10
-2023.361747764989
 20
69.00139136318253
 30
0.0
 11
-2023.361747764989
 21
68.61565836318252
 31
0.0
  0
LINE
  5
397
330
2
100
AcDbEntity
  8
計画２
  6
Continuous
 62
     7
100
AcDbLine
 10
-2023.1814977961
 20
69.0013905845398
 30
0.0
 11
-2023.1814977961
 21
69.0133907245397
 31
0.0
  0
LINE
  5
398
330
2
100
AcDbEntity
  8
計画２
  6
Continuous
 62
     7
100
AcDbLine
 10
-2023.181498544639
 20
68.62567536318252
 30
0.0
 11
-2023.181497934122
 21
69.00139070641083
 31
0.0
  0
LINE
  5
399
330
2
100
AcDbEntity
  8
計画２
  6
Continuous
 62
     7
100
AcDbLine
 10
-2022.461717764989
 20
68.51565636318241
 30
0.0
 11
-2022.461717764989
 21
68.36565336318241
 31
0.0
  0
LINE
  5
39A
330
2
100
AcDbEntity
  8
計画２
  6
Continuous
 62
     7
100
AcDbLine
 10
-2022.486747764989
 20
69.07568536318251
 30
0.0
 11
-2022.486747764989
 21
68.93568636318244
 31
0.0
  0
LINE
  5
39B
330
2
100
AcDbEntity
  8
計画２
  6
Continuous
 62
     7
100
AcDbLine
 10
-2022.43174776499
 20
68.98068536318252
 30
0.0
 11
-2022.43674776499
 21
69.07568536318251
 31
0.0
  0
LINE
  5
39C
330
2
100
AcDbEntity
  8
計画２
  6
Continuous
 62
     7
100
AcDbLine
 10
-2022.427747764989
 20
68.98068536318252
 30
0.0
 11
-2022.432747764989
 21
69.07568536318251
 31
0.0
  0
ARC
  5
39D
330
2
100
AcDbEntity
  8
計画２
  6
Continuous
 62
     7
100
AcDbCircle
 10
-2022.337737764989
 20
68.71068836318254
 30
0.0
 40
0.030000005
100
AcDbArc
 50
181.90917000086
 51
270.0
  0
LINE
  5
39E
330
2
100
AcDbEntity
  8
計画２
  6
Continuous
 62
     7
100
AcDbLine
 10
-2022.461717764989
 20
68.49068536318252
 30
0.0
 11
-2022.461717764989
 21
68.59068736318261
 31
0.0
  0
LINE
  5
39F
330
2
100
AcDbEntity
  8
計画２
  6
Continuous
 62
     7
100
AcDbLine
 10
-2022.43674776499
 20
68.88568436318258
 30
0.0
 11
-2022.43674776499
 21
68.65068336318244
 31
0.0
  0
LINE
  5
3A0
330
2
100
AcDbEntity
  8
計画２
  6
Continuous
 62
     7
100
AcDbLine
 10
-2022.486747764989
 20
68.93568636318244
 30
0.0
 11
-2022.43674776499
 21
68.88568436318258
 31
0.0
  0
LINE
  5
3A1
330
2
100
AcDbEntity
  8
計画２
  6
Continuous
 62
     7
100
AcDbLine
 10
-2022.406737764989
 20
68.62068936318246
 30
0.0
 11
-2022.43674776499
 21
68.65068336318244
 31
0.0
  0
LINE
  5
3A2
330
2
100
AcDbEntity
  8
計画２
  6
Continuous
 62
     7
100
AcDbLine
 10
-2022.367707764989
 20
68.70968636318244
 30
0.0
 11
-2022.376747764989
 21
68.98068536318252
 31
0.0
  0
LINE
  5
3A3
330
2
100
AcDbEntity
  8
計画２
  6
Continuous
 62
     7
100
AcDbLine
 10
-2022.406737764989
 20
68.59068736318261
 30
0.0
 11
-2022.406737764989
 21
68.62068936318246
 31
0.0
  0
LINE
  5
3A4
330
2
100
AcDbEntity
  8
計画２
  6
Continuous
 62
     7
100
AcDbLine
 10
-2022.461717764989
 20
68.61565836318252
 30
0.0
 11
-2022.461717764989
 21
68.51565636318241
 31
0.0
  0
LINE
  5
3A5
330
2
100
AcDbEntity
  8
計画２
  6
Continuous
 62
     7
100
AcDbLine
 10
-2022.786777764989
 20
69.07568536318251
 30
0.0
 11
-2022.561767764989
 21
69.07568536318251
 31
0.0
  0
LINE
  5
3A6
330
2
100
AcDbEntity
  8
計画２
  6
Continuous
 62
     7
100
AcDbLine
 10
-2022.561767764989
 20
69.07568536318251
 30
0.0
 11
-2022.561767764989
 21
68.61565836318252
 31
0.0
  0
LINE
  5
3A7
330
2
100
AcDbEntity
  8
計画２
  6
Continuous
 62
     7
100
AcDbLine
 10
-2023.113967706101
 20
69.04638989000739
 30
0.0
 11
-2023.114997736101
 21
69.04535989000738
 31
0.0
  0
LINE
  5
3A8
330
2
100
AcDbEntity
  8
計画２
  6
Continuous
 62
     7
100
AcDbLine
 10
-2023.099027766102
 20
69.04638989000739
 30
0.0
 11
-2023.097997736101
 21
69.04535989000738
 31
0.0
  0
LINE
  5
3A9
330
2
100
AcDbEntity
  8
計画２
  6
Continuous
 62
     7
100
AcDbLine
 10
-2023.097997784823
 20
69.02619074453991
 30
0.0
 11
-2023.097997736101
 21
69.04535989000738
 31
0.0
  0
LINE
  5
3AA
330
2
100
AcDbEntity
  8
計画２
  6
Continuous
 62
     7
100
AcDbLine
 10
-2023.09799776499
 20
68.6256693631827
 30
0.0
 11
-2023.09799776499
 21
67.50138936318244
 31
0.0
  0
LINE
  5
3AB
330
2
100
AcDbEntity
  8
計画２
  6
Continuous
 62
     7
100
AcDbLine
 10
-2023.11501776499
 20
68.6256693631827
 30
0.0
 11
-2023.11501776499
 21
67.50138936318244
 31
0.0
  0
LINE
  5
3AC
330
2
100
AcDbEntity
  8
計画２
  6
Continuous
 62
     7
100
AcDbLine
 10
-2023.1183378261
 20
69.02619074453991
 30
0.0
 11
-2023.1203378261
 21
69.02419074453992
 31
0.0
  0
LINE
  5
3AD
330
2
100
AcDbEntity
  8
計画２
  6
Continuous
 62
     7
100
AcDbLine
 10
-2023.0946577761
 20
69.02619074453991
 30
0.0
 11
-2023.0926577761
 21
69.02419074453992
 31
0.0
  0
LINE
  5
3AE
330
2
100
AcDbEntity
  8
計画２
  6
Continuous
 62
     7
100
AcDbLine
 10
-2023.0314977961
 20
69.0013905845398
 30
0.0
 11
-2023.0314977961
 21
69.0133907245397
 31
0.0
  0
LINE
  5
3AF
330
2
100
AcDbEntity
  8
計画２
  6
Continuous
 62
     7
100
AcDbLine
 10
-2023.0926577761
 20
69.02419074453992
 30
0.0
 11
-2023.0926577761
 21
69.01339074453986
 31
0.0
  0
LINE
  5
3B0
330
2
100
AcDbEntity
  8
計画２
  6
Continuous
 62
     7
100
AcDbLine
 10
-2023.1183378261
 20
69.02619074453991
 30
0.0
 11
-2023.0946577761
 21
69.02619074453991
 31
0.0
  0
LINE
  5
3B1
330
2
100
AcDbEntity
  8
計画２
  6
Continuous
 62
     7
100
AcDbLine
 10
-2023.0990277661
 20
69.04639055453981
 30
0.0
 11
-2023.1139677061
 21
69.04639055453981
 31
0.0
  0
LINE
  5
3B2
330
2
100
AcDbEntity
  8
計画２
  6
Continuous
 62
     7
100
AcDbLine
 10
-2023.114997736101
 20
69.04535989000738
 30
0.0
 11
-2023.114997736101
 21
69.02619074453991
 31
0.0
  0
LINE
  5
3B3
330
2
100
AcDbEntity
  8
計画２
  6
Continuous
 62
     7
100
AcDbLine
 10
-2023.1203378261
 20
69.01339074453986
 30
0.0
 11
-2023.1203378261
 21
69.02419074453992
 31
0.0
  0
LINE
  5
3B4
330
2
100
AcDbEntity
  8
計画２
  6
Continuous
 62
     7
100
AcDbLine
 10
-2023.09799776499
 20
69.00139136318253
 30
0.0
 11
-2023.09799776499
 21
68.6256693631827
 31
0.0
  0
LINE
  5
3B5
330
2
100
AcDbEntity
  8
計画２
  6
Continuous
 62
     7
100
AcDbLine
 10
-2023.11501776499
 20
69.00139136318253
 30
0.0
 11
-2023.11501776499
 21
68.6256693631827
 31
0.0
  0
LINE
  5
3B6
330
2
100
AcDbEntity
  8
計画２
  6
Continuous
 62
     7
100
AcDbLine
 10
-2023.031498544638
 20
68.62567536318252
 30
0.0
 11
-2023.031497934121
 21
69.00139046266904
 31
0.0
  0
LINE
  5
3B8
330
2
100
AcDbEntity
  8
計画２
  6
Continuous
 62
     7
100
AcDbLine
 10
-2022.835227764989
 20
69.07568536318251
 30
0.0
 11
-2023.03523776499
 21
69.07568536318251
 31
0.0
  0
LINE
  5
3B9
330
2
100
AcDbEntity
  8
計画２
  6
Continuous
 62
     7
100
AcDbLine
 10
-2022.43674776499
 20
69.07568536318251
 30
0.0
 11
-2022.486747764989
 21
69.07568536318251
 31
0.0
  0
LINE
  5
3BA
330
2
100
AcDbEntity
  8
計画２
  6
Continuous
 62
     7
100
AcDbLine
 10
-2022.486747764989
 20
69.07568536318251
 30
0.0
 11
-2022.835227764989
 21
69.07568536318251
 31
0.0
  0
LINE
  5
3BF
330
2
100
AcDbEntity
  8
計画２
  6
Continuous
 62
     7
100
AcDbLine
 10
-2022.786777764989
 20
69.07568236318249
 30
0.0
 11
-2022.972417764989
 21
69.00139136318253
 31
0.0
  0
LINE
  5
3C0
330
2
100
AcDbEntity
  8
計画２
  6
Continuous
 62
     7
100
AcDbLine
 10
-2022.337737764989
 20
68.68068536318252
 30
0.0
 11
-2022.11576776499
 21
68.68068536318252
 31
0.0
  0
LINE
  5
3C1
330
2
100
AcDbEntity
  8
計画２
  6
Continuous
 62
     7
100
AcDbLine
 10
-2022.406737764989
 20
68.62068936318246
 30
0.0
 11
-2022.046747764989
 21
68.62068936318246
 31
0.0
  0
LINE
  5
3C2
330
2
100
AcDbEntity
  8
計画２
  6
Continuous
 62
     7
100
AcDbLine
 10
-2022.021757764989
 20
68.98068536318252
 30
0.0
 11
-2022.43174776499
 21
68.98068536318252
 31
0.0
  0
LINE
  5
3C3
330
2
100
AcDbEntity
  8
計画２
  6
Continuous
 62
     7
100
AcDbLine
 10
-2022.432747764989
 20
69.07568536318251
 30
0.0
 11
-2022.020737764989
 21
69.07568536318251
 31
0.0
  0
LINE
  5
3C4
330
2
100
AcDbEntity
  8
計画２
  6
Continuous
 62
     7
100
AcDbLine
 10
-2022.461717764989
 20
68.59068736318261
 30
0.0
 11
-2021.946747764989
 21
68.59068736318261
 31
0.0
  0
LINE
  5
3C5
330
2
100
AcDbEntity
  8
計画２
  6
Continuous
 62
     7
100
AcDbLine
 10
-2021.946747764989
 20
68.49068536318252
 30
0.0
 11
-2022.461717764989
 21
68.49068536318252
 31
0.0
  0
LINE
  5
3C7
330
2
100
AcDbEntity
  8
計画２
  6
CENTER2
 62
     7
 48
100.0
100
AcDbLine
 10
-2025.865697764989
 20
76.50344336318244
 30
0.0
 11
-2022.795437764989
 21
68.82799736318244
 31
0.0
  0
LINE
  5
3C8
330
2
100
AcDbEntity
  8
計画２
  6
Continuous
 62
     7
100
AcDbLine
 10
-2022.786777764989
 20
69.07568236318249
 30
0.0
 11
-2025.758027764989
 21
76.50344336318244
 31
0.0
  0
LINE
  5
3CA
330
2
100
AcDbEntity
  8
計画２
  6
Continuous
 62
     7
100
AcDbLine
 10
-2024.196747764989
 20
69.42468536318251
 30
0.0
 11
-2027.256747764989
 21
73.46468336318267
 31
0.0
  0
LINE
  5
3CB
330
2
100
AcDbEntity
  8
計画２
  6
Continuous
 62
     7
100
AcDbLine
 10
-2024.162828194984
 20
69.46271890752505
 30
0.0
 11
-2027.213517764989
 21
73.4904103631826
 31
0.0
  0
LINE
  5
3CC
330
2
100
AcDbEntity
  8
計画２
  6
Continuous
 62
     7
370
     0
100
AcDbLine
 10
-2031.879710899075
 20
70.26683009440098
 30
0.0
 11
-2031.916466550665
 21
70.35983021309012
 31
0.0
  0
LINE
  5
3CD
330
2
100
AcDbEntity
  8
計画２
  6
Continuous
 62
     7
100
AcDbLine
 10
-2031.050997764989
 20
82.49470636318269
 30
0.0
 11
-2033.223887764989
 21
81.70378936318234
 31
0.0
  0
LINE
  5
3CE
330
2
100
AcDbEntity
  8
計画２
  6
Continuous
 62
     7
100
AcDbLine
 10
-2031.800487764989
 20
82.22192036318238
 30
0.0
 11
-2031.051007764989
 21
82.22192036318238
 31
0.0
  0
LINE
  5
3D2
330
2
100
AcDbEntity
  8
計画２
  6
Continuous
 62
     7
100
AcDbLine
 10
-2034.467487764989
 20
82.33948536318235
 30
0.0
 11
-2034.377667764989
 21
82.06303436318243
 31
0.0
  0
CIRCLE
  5
3D3
330
2
100
AcDbEntity
  8
計画２
  6
Continuous
 62
     7
100
AcDbCircle
 10
-2033.05449776499
 20
81.1902533631825
 30
0.0
 40
0.15000003
  0
LINE
  5
3D4
330
2
100
AcDbEntity
  8
計画２
  6
Continuous
 62
     7
100
AcDbLine
 10
-2032.754727764989
 20
80.89057636318235
 30
0.0
 11
-2033.287647764989
 21
80.89057636318235
 31
0.0
  0
LINE
  5
3D5
330
2
100
AcDbEntity
  8
計画２
  6
Continuous
 62
     7
100
AcDbLine
 10
-2033.023997764989
 20
80.71318136318231
 30
0.0
 11
-2033.214307718614
 21
80.89057636318235
 31
0.0
  0
LINE
  5
3D6
330
2
100
AcDbEntity
  8
計画２
  6
Continuous
 62
     7
100
AcDbLine
 10
-2032.754727764989
 20
81.70378936318234
 30
0.0
 11
-2034.159987764989
 21
81.70378936318234
 31
0.0
  0
CIRCLE
  5
3D7
330
2
100
AcDbEntity
  8
計画２
  6
Continuous
 62
     7
100
AcDbCircle
 10
-2033.06750776499
 20
80.26596336318247
 30
0.0
 40
0.0050000003
  0
LINE
  5
3D8
330
2
100
AcDbEntity
  8
計画２
  6
Continuous
 62
     7
100
AcDbLine
 10
-2033.066757764989
 20
80.68468436318235
 30
0.0
 11
-2033.066757764989
 21
80.58468436318234
 31
0.0
  0
CIRCLE
  5
3D9
330
2
100
AcDbEntity
  8
計画２
  6
Continuous
 62
     7
100
AcDbCircle
 10
-2034.382497764989
 20
82.04251636318254
 30
0.0
 40
0.0050000003
  0
CIRCLE
  5
3DA
330
2
100
AcDbEntity
  8
計画２
  6
Continuous
 62
     7
100
AcDbCircle
 10
-2034.367817764989
 20
81.90185336318259
 30
0.0
 40
0.0050000003
  0
LINE
  5
3DB
330
2
100
AcDbEntity
  8
計画２
  6
Continuous
 62
     7
100
AcDbLine
 10
-2034.246757764989
 20
81.78468436318235
 30
0.0
 11
-2034.246757764989
 21
81.68468436318235
 31
0.0
  0
LINE
  5
3DC
330
2
100
AcDbEntity
  8
計画２
  6
Continuous
 62
     7
100
AcDbLine
 10
-2034.377667764989
 20
82.06303436318243
 30
0.0
 11
-2034.308277764989
 21
81.79458436318251
 31
0.0
  0
CIRCLE
  5
3DD
330
2
100
AcDbEntity
  8
計画２
  6
Continuous
 62
     7
100
AcDbCircle
 10
-2034.474857764989
 20
82.24615436318257
 30
0.0
 40
0.0050000003
  0
CIRCLE
  5
3DE
330
2
100
AcDbEntity
  8
計画２
  6
Continuous
 62
     7
100
AcDbCircle
 10
-2034.460167764989
 20
82.10550036318245
 30
0.0
 40
0.0050000003
  0
LINE
  5
3DF
330
2
100
AcDbEntity
  8
計画２
  6
Continuous
 62
     7
100
AcDbLine
 10
-2034.159987764989
 20
81.70378936318234
 30
0.0
 11
-2033.287647764989
 21
80.89057636318235
 31
0.0
  0
LINE
  5
3E0
330
2
100
AcDbEntity
  8
計画２
  6
Continuous
 62
     7
100
AcDbLine
 10
-2033.066757764989
 20
80.68468436318235
 30
0.0
 11
-2034.246757764989
 21
81.78468436318235
 31
0.0
  0
LINE
  5
3E1
330
2
100
AcDbEntity
  8
計画２
  6
Continuous
 62
     7
100
AcDbLine
 10
-2032.754727764989
 20
80.89057636318235
 30
0.0
 11
-2032.754727764989
 21
81.78501636318253
 31
0.0
  0
LINE
  5
3E2
330
2
100
AcDbEntity
  8
計画２
  6
Continuous
 62
     7
100
AcDbLine
 10
-2031.800487764989
 20
81.78501636318253
 30
0.0
 11
-2032.754727764989
 21
81.78501636318253
 31
0.0
  0
LINE
  5
3E3
330
2
100
AcDbEntity
  8
計画２
  6
Continuous
 62
     7
100
AcDbLine
 10
-2031.800487764989
 20
82.22192036318238
 30
0.0
 11
-2031.800487764989
 21
81.78502136318266
 31
0.0
  0
CIRCLE
  5
3E4
330
2
100
AcDbEntity
  8
計画２
  6
Continuous
 62
     7
100
AcDbCircle
 10
-2033.032107764989
 20
80.1290453631824
 30
0.0
 40
0.0050000003
  0
CIRCLE
  5
3E5
330
2
100
AcDbEntity
  8
計画２
  6
Continuous
 62
     7
100
AcDbCircle
 10
-2032.945957764989
 20
80.07828536318262
 30
0.0
 40
0.0050000003
  0
CIRCLE
  5
3E6
330
2
100
AcDbEntity
  8
計画２
  6
Continuous
 62
     7
100
AcDbCircle
 10
-2032.910557764989
 20
79.94135236318243
 30
0.0
 40
0.0050000003
  0
LINE
  5
3E7
330
2
100
AcDbEntity
  8
計画２
  6
Continuous
 62
     7
100
AcDbLine
 10
-2032.944217764989
 20
80.09929336318252
 30
0.0
 11
-2032.835767764989
 21
79.84413136318251
 31
0.0
  0
LINE
  5
3E8
330
2
100
AcDbEntity
  8
計画２
  6
Continuous
 62
     7
100
AcDbLine
 10
-2033.074067764989
 20
80.35937436318254
 30
0.0
 11
-2032.944217764989
 21
80.09929336318252
 31
0.0
  0
CIRCLE
  5
3E9
330
2
100
AcDbEntity
  8
計画２
  6
Continuous
 62
     7
100
AcDbCircle
 10
-2034.679737764989
 20
83.05644336318243
 30
0.0
 40
0.0050000003
  0
LINE
  5
3EA
330
2
100
AcDbEntity
  8
計画２
  6
Continuous
 62
     7
100
AcDbLine
 10
-2033.400237764989
 20
82.70380336318252
 30
0.0
 11
-2034.495437764989
 21
82.70380336318252
 31
0.0
  0
CIRCLE
  5
3EB
330
2
100
AcDbEntity
  8
計画２
  6
Continuous
 62
     7
100
AcDbCircle
 10
-2032.66341776499
 20
79.19463636318241
 30
0.0
 40
0.0050000003
  0
CIRCLE
  5
3EC
330
2
100
AcDbEntity
  8
計画２
  6
Continuous
 62
     7
100
AcDbCircle
 10
-2032.628047764989
 20
79.05771336318245
 30
0.0
 40
0.0050000003
  0
CIRCLE
  5
3ED
330
2
100
AcDbEntity
  8
計画２
  6
Continuous
 62
     7
100
AcDbCircle
 10
-2032.541877764989
 20
79.00695736318239
 30
0.0
 40
0.0050000003
  0
CIRCLE
  5
3EE
330
2
100
AcDbEntity
  8
計画２
  6
Continuous
 62
     7
100
AcDbCircle
 10
-2032.506497764989
 20
78.8700353631826
 30
0.0
 40
0.0050000003
  0
LINE
  5
3EF
330
2
100
AcDbEntity
  8
計画２
  6
Continuous
 62
     7
100
AcDbLine
 10
-2031.886747764989
 20
77.50468636318268
 30
0.0
 11
-2031.886747764989
 21
77.40468636318269
 31
0.0
  0
CIRCLE
  5
3F0
330
2
100
AcDbEntity
  8
計画２
  6
Continuous
 62
     7
100
AcDbCircle
 10
-2032.210857764989
 20
77.98936436318252
 30
0.0
 40
0.0050000003
  0
CIRCLE
  5
3F1
330
2
100
AcDbEntity
  8
計画２
  6
Continuous
 62
     7
100
AcDbCircle
 10
-2032.175487764989
 20
77.85244636318245
 30
0.0
 40
0.0050000003
  0
CIRCLE
  5
3F2
330
2
100
AcDbEntity
  8
計画２
  6
Continuous
 62
     7
100
AcDbCircle
 10
-2032.089307764989
 20
77.80167536318251
 30
0.0
 40
0.0050000003
  0
CIRCLE
  5
3F3
330
2
100
AcDbEntity
  8
計画２
  6
Continuous
 62
     7
100
AcDbCircle
 10
-2032.053937764989
 20
77.66475236318233
 30
0.0
 40
0.0050000003
  0
LINE
  5
3F4
330
2
100
AcDbEntity
  8
計画２
  6
Continuous
 62
     7
100
AcDbLine
 10
-2032.217417764989
 20
78.08277436318267
 30
0.0
 11
-2032.087587764989
 21
77.82271336318244
 31
0.0
  0
LINE
  5
3F5
330
2
100
AcDbEntity
  8
計画２
  6
Continuous
 62
     7
100
AcDbLine
 10
-2032.087587764989
 20
77.82271336318244
 30
0.0
 11
-2031.979117764989
 21
77.56753136318244
 31
0.0
  0
LINE
  5
3F6
330
2
100
AcDbEntity
  8
計画２
  6
Continuous
 62
     7
100
AcDbLine
 10
-2032.540147764989
 20
79.02797536318255
 30
0.0
 11
-2032.431677764989
 21
78.77278436318245
 31
0.0
  0
LINE
  5
3F7
330
2
100
AcDbEntity
  8
計画２
  6
Continuous
 62
     7
100
AcDbLine
 10
-2032.669977764989
 20
79.28804736318273
 30
0.0
 11
-2032.540147764989
 21
79.02797536318255
 31
0.0
  0
LINE
  5
3F8
330
2
100
AcDbEntity
  8
計画２
  6
Continuous
 62
     7
100
AcDbLine
 10
-2031.886747764989
 20
77.50468636318268
 30
0.0
 11
-2033.066757764989
 21
80.68468436318235
 31
0.0
  0
LINE
  5
3F9
330
2
100
AcDbEntity
  8
計画２
  6
Continuous
 62
     7
100
AcDbLine
 10
-2031.845927764989
 20
77.5384103631826
 30
0.0
 11
-2033.023997764989
 21
80.71318136318231
 31
0.0
  0
LINE
  5
3FA
330
2
100
AcDbEntity
  8
0
  6
ByBlock
 62
     7
100
AcDbLine
 10
-2029.074703035522
 20
79.5893592482303
 30
0.0
 11
-2028.983904935574
 21
79.4111579433926
 31
0.0
  0
LINE
  5
3FB
330
2
100
AcDbEntity
  8
0
  6
ByBlock
 62
     7
100
AcDbLine
 10
-2029.968184212997
 20
81.37868965365091
 30
0.0
 11
-2029.877386113049
 21
81.20048834881322
 31
0.0
  0
LINE
  5
3FC
330
2
100
AcDbEntity
  8
0
  6
ByBlock
 62
     7
100
AcDbLine
 10
-2029.477299874975
 20
81.5165750928679
 30
0.0
 11
-2029.922785163023
 21
81.28958900123199
 31
0.0
  0
LINE
  5
3FD
330
2
100
AcDbEntity
  8
計画２
  6
Continuous
 62
     7
370
     0
100
AcDbLine
 10
-2028.725752585496
 20
80.55071440307024
 30
0.0
 11
-2028.770473965018
 21
80.52835376324081
 31
0.0
  0
LINE
  5
3FE
330
2
100
AcDbEntity
  8
計画２
  6
Continuous
 62
     7
100
AcDbLine
 10
-2028.994077764989
 20
80.97557436318247
 30
0.0
 11
-2029.164037764989
 21
80.89059636318237
 31
0.0
  0
LINE
  5
3FF
330
2
100
AcDbEntity
  8
計画２
  6
Continuous
 62
     7
100
AcDbLine
 10
-2029.441297764989
 20
81.86999936318253
 30
0.0
 11
-2029.61122776499
 21
81.78502136318266
 31
0.0
  0
LINE
  5
400
330
2
100
AcDbEntity
  8
計画２
  6
Continuous
 62
     7
100
AcDbLine
 10
-2029.888507764989
 20
82.76440936318245
 30
0.0
 11
-2030.058447764989
 21
82.67943636318269
 31
0.0
  0
LINE
  5
401
330
2
100
AcDbEntity
  8
計画２
  6
Continuous
 62
     7
100
AcDbLine
 10
-2031.05102776499
 20
82.65883536318241
 30
0.0
 11
-2030.048127764989
 21
82.65883536318241
 31
0.0
  0
LINE
  5
402
330
2
100
AcDbEntity
  8
0
  6
ByBlock
 62
     7
100
AcDbLine
 10
-2028.179116866226
 20
77.80110234591582
 30
0.0
 11
-2028.088318766278
 21
77.62290104107811
 31
0.0
  0
LINE
  5
403
330
2
100
AcDbEntity
  8
0
  6
ByBlock
 62
     7
100
AcDbLine
 10
-2028.626349496954
 20
78.6955210314429
 30
0.0
 11
-2028.535551397006
 21
78.5173197266052
 31
0.0
  0
LWPOLYLINE
  5
404
330
2
100
AcDbEntity
  8
計画２
  6
ByBlock
 62
     7
100
AcDbPolyline
 90
        2
 70
     1
 43
0.0035
 10
-2032.110697673663
 20
82.63068370218105
 42
1.0
 10
-2032.106197673663
 20
82.63068370218105
 42
1.0
  0
LWPOLYLINE
  5
405
330
2
100
AcDbEntity
  8
計画２
  6
ByBlock
 62
     7
100
AcDbPolyline
 90
        2
 70
     1
 43
0.0035
 10
-2032.721777090314
 20
82.30999028237881
 42
1.0
 10
-2032.717277090314
 20
82.30999028237881
 42
1.0
  0
LWPOLYLINE
  5
406
330
2
100
AcDbEntity
  8
計画２
  6
ByBlock
 62
     7
100
AcDbPolyline
 90
        2
 70
     1
 43
0.0035
 10
-2032.324576097695
 20
82.4016163370276
 42
1.0
 10
-2032.320076097695
 20
82.4016163370276
 42
1.0
  0
LWPOLYLINE
  5
407
330
2
100
AcDbEntity
  8
計画２
  6
ByBlock
 62
     7
100
AcDbPolyline
 90
        2
 70
     1
 43
0.0035
 10
-2032.584284116866
 20
82.70703986198752
 42
1.0
 10
-2032.579784116866
 20
82.70703986198752
 42
1.0
  0
LWPOLYLINE
  5
408
330
2
100
AcDbEntity
  8
計画２
  6
ByBlock
 62
     7
100
AcDbPolyline
 90
        2
 70
     1
 43
0.0035
 10
-2032.996763037207
 20
82.34053230059513
 42
1.0
 10
-2032.992263037208
 20
82.34053230059513
 42
1.0
  0
LWPOLYLINE
  5
409
330
2
100
AcDbEntity
  8
計画２
  6
ByBlock
 62
     7
100
AcDbPolyline
 90
        2
 70
     1
 43
0.0035
 10
-2033.195364929526
 20
81.98929574831081
 42
1.0
 10
-2033.190864929526
 20
81.98929574831081
 42
1.0
  0
LWPOLYLINE
  5
40A
330
2
100
AcDbEntity
  8
計画２
  6
ByBlock
 62
     7
100
AcDbPolyline
 90
        2
 70
     1
 43
0.0035
 10
-2033.806444346176
 20
82.32526129148686
 42
1.0
 10
-2033.801944346176
 20
82.32526129148686
 42
1.0
  0
LWPOLYLINE
  5
40B
330
2
100
AcDbEntity
  8
計画２
  6
ByBlock
 62
     7
100
AcDbPolyline
 90
        2
 70
     1
 43
0.0035
 10
-2034.23420119424
 20
82.5085145150504
 42
1.0
 10
-2034.22970119424
 20
82.5085145150504
 42
1.0
  0
LWPOLYLINE
  5
40C
330
2
100
AcDbEntity
  8
計画２
  6
ByBlock
 62
     7
100
AcDbPolyline
 90
        2
 70
     1
 43
0.0035
 10
-2034.08143029307
 20
82.08092291722534
 42
1.0
 10
-2034.07693029307
 20
82.08092291722534
 42
1.0
  0
LWPOLYLINE
  5
40D
330
2
100
AcDbEntity
  8
計画２
  6
ByBlock
 62
     7
100
AcDbPolyline
 90
        2
 70
     1
 43
0.0035
 10
-2034.005046238495
 20
82.43215946950945
 42
1.0
 10
-2034.000546238495
 20
82.43215946950945
 42
1.0
  0
LWPOLYLINE
  5
40E
330
2
100
AcDbEntity
  8
計画２
  6
ByBlock
 62
     7
100
AcDbPolyline
 90
        2
 70
     1
 43
0.0035
 10
-2033.546734930996
 20
82.53905764753225
 42
1.0
 10
-2033.542234930996
 20
82.53905764753225
 42
1.0
  0
LWPOLYLINE
  5
40F
330
2
100
AcDbEntity
  8
計画２
  6
ByBlock
 62
     7
100
AcDbPolyline
 90
        2
 70
     1
 43
0.0035
 10
-2033.562012858718
 20
82.14200695365802
 42
1.0
 10
-2033.557512858718
 20
82.14200695365802
 42
1.0
  0
LWPOLYLINE
  5
410
330
2
100
AcDbEntity
  8
計画２
  6
ByBlock
 62
     7
100
AcDbPolyline
 90
        2
 70
     1
 43
0.0035
 10
-2033.867551869038
 20
81.85185555207189
 42
1.0
 10
-2033.863051869039
 20
81.85185555207189
 42
1.0
  0
LWPOLYLINE
  5
411
330
2
100
AcDbEntity
  8
計画２
  6
ByBlock
 62
     7
100
AcDbPolyline
 90
        2
 70
     1
 43
0.0035
 10
-2033.31757997525
 20
81.82131353385557
 42
1.0
 10
-2033.313079975251
 20
81.82131353385557
 42
1.0
  0
LWPOLYLINE
  5
412
330
2
100
AcDbEntity
  8
計画２
  6
ByBlock
 62
     7
100
AcDbPolyline
 90
        2
 70
     1
 43
0.0035
 10
-2031.407954878705
 20
82.6764978437712
 42
1.0
 10
-2031.403454878705
 20
82.6764978437712
 42
1.0
  0
LWPOLYLINE
  5
413
330
2
100
AcDbEntity
  8
計画２
  6
ByBlock
 62
     7
100
AcDbPolyline
 90
        2
 70
     1
 43
0.0035
 10
-2032.492622134568
 20
82.12673594454974
 42
1.0
 10
-2032.488122134568
 20
82.12673594454974
 42
1.0
  0
LWPOLYLINE
  5
414
330
2
100
AcDbEntity
  8
計画２
  6
ByBlock
 62
     7
100
AcDbPolyline
 90
        2
 70
     1
 43
0.0035
 10
-2031.881542717918
 20
81.95875373009448
 42
1.0
 10
-2031.877042717918
 20
81.95875373009448
 42
1.0
  0
LWPOLYLINE
  5
415
330
2
100
AcDbEntity
  8
計画２
  6
ByBlock
 62
     7
100
AcDbPolyline
 90
        2
 70
     1
 43
0.0035
 10
-2032.156528664812
 20
81.91293958850456
 42
1.0
 10
-2032.152028664812
 20
81.91293958850456
 42
1.0
  0
LWPOLYLINE
  5
416
330
2
100
AcDbEntity
  8
計画２
  6
ByBlock
 62
     7
100
AcDbPolyline
 90
        2
 70
     1
 43
0.0035
 10
-2032.021755117828
 20
82.04782700241096
 42
1.0
 10
-2032.017255117827
 20
82.04782700241096
 42
1.0
  0
LWPOLYLINE
  5
417
330
2
100
AcDbEntity
  8
計画２
  6
ByBlock
 62
     7
100
AcDbPolyline
 90
        2
 70
     1
 43
0.0035
 10
-2032.360732743164
 20
81.91750027732453
 42
1.0
 10
-2032.356232743165
 20
81.91750027732453
 42
1.0
  0
LWPOLYLINE
  5
418
330
2
100
AcDbEntity
  8
計画２
  6
ByBlock
 62
     7
100
AcDbPolyline
 90
        2
 70
     1
 43
0.0035
 10
-2032.654077610698
 20
81.85233802904697
 42
1.0
 10
-2032.649577610698
 20
81.85233802904697
 42
1.0
  0
LWPOLYLINE
  5
419
330
2
100
AcDbEntity
  8
計画２
  6
ByBlock
 62
     7
100
AcDbPolyline
 90
        2
 70
     1
 43
0.0035
 10
-2031.689414121547
 20
83.02822133009271
 42
1.0
 10
-2031.684914121547
 20
83.02822133009271
 42
1.0
  0
LWPOLYLINE
  5
41A
330
2
100
AcDbEntity
  8
計画２
  6
ByBlock
 62
     7
100
AcDbPolyline
 90
        2
 70
     1
 43
0.0035
 10
-2032.27461850253
 20
82.91122567782432
 42
1.0
 10
-2032.27011850253
 20
82.91122567782432
 42
1.0
  0
LWPOLYLINE
  5
41B
330
2
100
AcDbEntity
  8
計画２
  6
ByBlock
 62
     7
100
AcDbPolyline
 90
        2
 70
     1
 43
0.0035
 10
-2031.791825376823
 20
82.70648272922164
 42
1.0
 10
-2031.787325376822
 20
82.70648272922164
 42
1.0
  0
LWPOLYLINE
  5
41C
330
2
100
AcDbEntity
  8
計画２
  6
ByBlock
 62
     7
100
AcDbPolyline
 90
        2
 70
     1
 43
0.0035
 10
-2031.191990816514
 20
82.91122567782432
 42
1.0
 10
-2031.187490816514
 20
82.91122567782432
 42
1.0
  0
LWPOLYLINE
  5
41D
330
2
100
AcDbEntity
  8
計画２
  6
ByBlock
 62
     7
100
AcDbPolyline
 90
        2
 70
     1
 43
0.0035
 10
-2031.734157621313
 20
82.41230325773958
 42
1.0
 10
-2031.729657621312
 20
82.41230325773958
 42
1.0
  0
LWPOLYLINE
  5
41E
330
2
100
AcDbEntity
  8
計画２
  6
ByBlock
 62
     7
100
AcDbPolyline
 90
        2
 70
     1
 43
0.0035
 10
-2032.939268386873
 20
82.71436170079439
 42
1.0
 10
-2032.934768386873
 20
82.71436170079439
 42
1.0
  0
LWPOLYLINE
  5
41F
330
2
100
AcDbEntity
  8
計画２
  6
ByBlock
 62
     7
100
AcDbPolyline
 90
        2
 70
     1
 43
0.0035
 10
-2033.255704647176
 20
82.47185295053544
 42
1.0
 10
-2033.251204647176
 20
82.47185295053544
 42
1.0
  0
LWPOLYLINE
  5
420
330
2
100
AcDbEntity
  8
計画２
  6
ByBlock
 62
     7
100
AcDbPolyline
 90
        2
 70
     1
 43
0.0035
 10
-2031.243672483383
 20
82.32738953865199
 42
1.0
 10
-2031.239172483383
 20
82.32738953865199
 42
1.0
  0
LWPOLYLINE
  5
421
330
2
100
AcDbEntity
  8
計画２
  6
ByBlock
 62
     7
100
AcDbPolyline
 90
        2
 70
     1
 43
0.0035
 10
-2031.412240627801
 20
82.28694838545443
 42
1.0
 10
-2031.407740627801
 20
82.28694838545443
 42
1.0
  0
LINE
  5
422
330
2
100
AcDbEntity
  8
計画２
  6
ByBlock
 62
     7
100
AcDbLine
 10
-2036.797961639281
 20
76.45871721441086
 30
0.0
 11
-2040.375672001099
 21
74.66986602805154
 31
0.0
  0
LINE
  5
423
330
2
100
AcDbEntity
  8
計画２
  6
Continuous
 62
     7
370
     0
100
AcDbLine
 10
-2036.842682918939
 20
76.54815997345602
 30
0.0
 11
-2040.420393280758
 21
74.75930878709694
 31
0.0
  0
LINE
  5
424
330
2
100
AcDbEntity
  8
計画２
  6
Continuous
 62
     7
370
     0
100
AcDbLine
 10
-2035.925894688655
 20
76.95065139052315
 30
0.0
 11
-2040.398032640928
 21
74.71458740757448
 31
0.0
  0
LINE
  5
425
330
2
100
AcDbEntity
  8
計画２
  6
Continuous
 62
     7
370
     0
100
AcDbLine
 10
-2040.375672001099
 20
74.66986602805154
 30
0.0
 11
-2040.420393280758
 21
74.75930878709694
 31
0.0
  0
LINE
  5
426
330
2
100
AcDbEntity
  8
計画２
  6
ByBlock
 62
     7
100
AcDbLine
 10
-2038.13476124628
 20
80.91999706456457
 30
0.0
 11
-2038.414712682146
 21
80.7828835588025
 31
0.0
  0
LINE
  5
427
330
2
100
AcDbEntity
  8
計画２
  6
Continuous
 62
     7
370
     0
100
AcDbLine
 10
-2036.797961639281
 20
76.45871721441086
 30
0.0
 11
-2036.842682918939
 21
76.54815997345602
 31
0.0
  0
LINE
  5
428
330
2
100
AcDbEntity
  8
0
  6
ByBlock
 62
     7
100
AcDbLine
 10
-2038.13476124628
 20
80.91999706456457
 30
0.0
 11
-2039.184008394221
 21
79.74928463641295
 31
0.0
  0
LEADER
  5
429
330
2
100
AcDbEntity
  8
0
  6
ByBlock
 62
     7
100
AcDbLeader
  3
白100の1
 76
     2
 10
-2035.410810370547
 20
77.20819297448051
 30
0.0
 10
-2031.136984062751
 20
70.61413512237156
 30
0.0
1001
ACAD
1000
DSTYLE
1002
{
1070
    77
1070
     0
1002
}
  0
TEXT
  5
42A
330
2
100
AcDbEntity
  8
寸法
 62
     7
100
AcDbText
 10
-2033.562443597883
 20
68.67221795522323
 30
0.0
 40
0.3
  1
永久アンカー
 41
0.8
  7
Y08
100
AcDbText
  0
LINE
  5
42B
330
2
100
AcDbEntity
  8
計画２
 62
     7
100
AcDbLine
 10
-2033.700316383785
 20
68.54706404471241
 30
0.0
 11
-2029.777227098906
 21
68.5468283791395
 31
0.0
  0
LINE
  5
42C
330
2
100
AcDbEntity
  8
計画２
  6
Continuous
 62
     7
370
     0
100
AcDbLine
 10
-2035.599715646639
 20
68.79660403079558
 30
0.0
 11
-2035.636471298229
 21
68.88960414948448
 31
0.0
  0
LINE
  5
42D
330
2
100
AcDbEntity
  8
計画２
  6
ByBlock
 62
     7
100
AcDbLine
 10
-2031.879710899075
 20
70.26683009440098
 30
0.0
 11
-2035.599715646639
 21
68.79660403079511
 31
0.0
  0
LINE
  5
42E
330
2
100
AcDbEntity
  8
計画２
  6
Continuous
 62
     7
370
     0
100
AcDbLine
 10
-2031.916466550665
 20
70.3598302130899
 30
0.0
 11
-2035.636471298229
 21
68.88960414948448
 31
0.0
  0
LINE
  5
42F
330
2
100
AcDbEntity
  8
計画２
  6
ByBlock
 62
     7
100
AcDbLine
 10
-2035.618093472434
 20
68.84310409013991
 30
0.0
 11
-2031.89808872487
 21
70.31333015374555
 31
0.0
  0
LEADER
  5
430
330
2
100
AcDbEntity
  8
0
  6
ByBlock
 62
     7
100
AcDbLeader
  3
白100の1
 76
     2
 10
-2031.136984062751
 20
70.61413512237156
 30
0.0
 10
-2029.777227098906
 20
68.5468283791395
 30
0.0
1001
ACAD
1000
DSTYLE
1002
{
1070
    77
1070
     0
1002
}
  0
LINE
  5
431
330
2
100
AcDbEntity
  8
計画２
 62
     7
100
AcDbLine
 10
-2042.355452938755
 20
79.74928463641295
 30
0.0
 11
-2039.184008394221
 21
79.74928463641295
 31
0.0
  0
TEXT
  5
432
330
2
100
AcDbEntity
  8
寸法
 62
     7
100
AcDbText
 10
-2042.239792299294
 20
79.82888543913486
 30
0.0
 40
0.3
  1
地すべり線
 41
0.8
  7
Y08
100
AcDbText
  0
LINE
  5
433
330
2
100
AcDbEntity
  8
計画２
  6
Continuous
 62
     7
370
     0
100
AcDbLine
 10
-2024.314534406988
 20
73.31051428912099
 30
0.0
 11
-2031.89808872487
 21
70.31333015374555
 31
0.0
  0
LINE
  5
435
330
2
100
AcDbEntity
  8
計画２
  6
Continuous
 62
     7
100
AcDbLine
 10
-2027.987597764989
 20
75.19942136318255
 30
0.0
 11
-2031.845927764989
 21
77.5384103631826
 31
0.0
  0
LINE
  5
436
330
2
100
AcDbEntity
  8
計画２
  6
Continuous
 62
     7
100
AcDbLine
 10
-2028.02674776499
 20
75.16468636318268
 30
0.0
 11
-2031.886747764989
 21
77.50468636318268
 31
0.0
  0
LINE
  5
438
330
2
100
AcDbEntity
  8
計画２
  6
Continuous
 62
     7
370
     0
100
AcDbLine
 10
-2028.632410550951
 20
80.59738531612577
 30
0.0
 11
-2035.925894688655
 21
76.95065139052315
 31
0.0
  0
LINE
  5
43A
330
2
100
AcDbEntity
  8
0
  6
ByBlock
 62
     7
100
AcDbLine
 10
-2028.582662527683
 20
79.727833785393
 30
0.0
 11
-2029.029303985548
 21
79.5002585958114
 31
0.0
  0
ARC
  5
43B
330
2
100
AcDbEntity
  8
計画２
  6
Continuous
 62
     7
370
     0
100
AcDbCircle
 10
-2028.770481565054
 20
80.52834996330011
 30
0.0
 40
0.1543680176566704
100
AcDbArc
 50
296.5650000013757
 51
116.5650000013757
  0
LINE
  5
43C
330
2
100
AcDbEntity
  8
計画２
  6
Continuous
 62
     7
100
AcDbLine
 10
-2028.54685776499
 20
80.08113936318244
 30
0.0
 11
-2028.716817764989
 21
79.99616636318267
 31
0.0
  0
LINE
  5
43D
330
2
100
AcDbEntity
  8
計画２
  6
ByBlock
 62
     7
100
AcDbLine
 10
-2028.54685776499
 20
80.08113936318244
 30
0.0
 11
-2028.994090165048
 21
80.9755681632992
 31
0.0
  0
LINE
  5
43E
330
2
100
AcDbEntity
  8
0
  6
ByBlock
 62
     7
100
AcDbLine
 10
-2028.135465158932
 20
78.83340647065984
 30
0.0
 11
-2028.58095044698
 21
78.606420379024
 31
0.0
  0
LINE
  5
43F
330
2
100
AcDbEntity
  8
0
  6
ByBlock
 62
     7
100
AcDbLine
 10
-2027.688232528204
 20
77.9389877851328
 30
0.0
 11
-2028.133717816252
 21
77.71200169349703
 31
0.0
  0
SPLINE
  5
441
330
2
100
AcDbEntity
  8
計画２
  6
DASHED2
 62
     7
 48
0.1
100
AcDbSpline
210
0.0
220
0.0
230
1.0
 70
  1064
 71
     3
 72
     9
 73
     5
 74
     3
 42
0.000000001
 43
0.0000000001
 44
0.0000000001
 40
0.0
 40
0.0
 40
0.0
 40
0.0
 40
12.28191988203411
 40
25.70226385115167
 40
25.70226385115167
 40
25.70226385115167
 40
25.70226385115167
 10
-2023.561737764989
 20
68.36565336318241
 30
0.0
 10
-2027.503681623495
 20
70.04586133514824
 30
0.0
 10
-2035.752952267733
 20
73.56201752530916
 30
0.0
 10
-2038.685884078512
 20
82.08250852664431
 30
0.0
 10
-2040.217303799614
 20
86.53145203939891
 30
0.0
 11
-2023.561737764989
 21
68.36565336318241
 31
0.0
 11
-2034.17361481762
 21
74.5489875291923
 31
0.0
 11
-2040.217303799614
 21
86.53145203939891
 31
0.0
  0
LINE
  5
442
330
2
100
AcDbEntity
  8
計画２
  6
Continuous
 62
     7
100
AcDbLine
 10
-2031.050997764989
 20
83.55885436318251
 30
0.0
 11
-2033.400227764989
 21
82.70380336318252
 31
0.0
  0
LINE
  5
443
330
2
100
AcDbEntity
  8
計画２
  6
Continuous
 62
     7
100
AcDbLine
 10
-2034.246757764989
 20
81.78468436318235
 30
0.0
 11
-2035.496747764989
 21
86.40468336318265
 31
0.0
  0
LINE
  5
444
330
2
100
AcDbEntity
  8
計画２
  6
Continuous
 62
     7
100
AcDbLine
 10
-2034.689587764989
 20
83.21764736318234
 30
0.0
 11
-2034.620207764989
 21
82.94919436318259
 31
0.0
  0
LINE
  5
445
330
2
100
AcDbEntity
  8
計画２
  6
Continuous
 62
     7
100
AcDbLine
 10
-2031.051007764989
 20
83.65884936318238
 30
0.0
 11
-2031.051007764989
 21
82.22192036318238
 31
0.0
  0
LINE
  5
446
330
2
100
AcDbEntity
  8
計画２
  6
Continuous
 62
     7
100
AcDbLine
 10
-2030.33572776499
 20
83.65884936318238
 30
0.0
 11
-2026.758027764989
 21
76.50343336318265
 31
0.0
  0
LINE
  5
447
330
2
100
AcDbEntity
  8
計画２
  6
CENTER2
 62
     7
 48
100.0
100
AcDbLine
 10
-2030.441947764989
 20
83.6588693631824
 30
0.0
 11
-2026.753687764989
 21
76.28235036318256
 31
0.0
  0
LINE
  5
448
330
2
100
AcDbEntity
  8
計画２
  6
Continuous
 62
     7
100
AcDbLine
 10
-2030.548157764989
 20
83.6588693631824
 30
0.0
 11
-2026.927957764989
 21
76.41846036318243
 31
0.0
  0
LWPOLYLINE
  5
449
330
2
100
AcDbEntity
  8
計画２
  6
ByBlock
 62
     7
100
AcDbPolyline
 90
        2
 70
     1
 43
0.0035
 10
-2031.455332648356
 20
83.10134389132675
 42
1.0
 10
-2031.450832648356
 20
83.10134389132675
 42
1.0
  0
LINE
  5
44A
330
2
100
AcDbEntity
  8
0
  6
ByBlock
 62
     7
100
AcDbLine
 10
-2027.241023640001
 20
77.04454778513262
 30
0.0
 11
-2027.686508928049
 21
76.81756169349687
 31
0.0
  0
LINE
  5
44B
330
2
100
AcDbEntity
  8
0
  6
ByBlock
 62
     7
100
AcDbLine
 10
-2027.731907978023
 20
76.90666234591566
 30
0.0
 11
-2027.641109878075
 21
76.72846104107795
 31
0.0
  0
LEADER
  5
44C
330
2
100
AcDbEntity
  8
0
  6
ByBlock
 62
     7
100
AcDbLeader
  3
白100の1
 76
     2
 10
-2027.502313925852
 20
76.91138407300889
 30
0.0
 10
-2027.949527610562
 20
77.80581723048688
 30
0.0
213
0.0
223
0.04
233
0.0
1001
ACAD
1000
DSTYLE
1002
{
1070
    77
1070
     0
1002
}
  0
LINE
  5
44D
330
2
100
AcDbEntity
  8
0
  6
ByBlock
 62
     7
100
AcDbLine
 10
-2023.979235951897
 20
71.51845578513301
 30
0.0
 11
-2024.424739213992
 21
71.29146053526314
 31
0.0
  0
LINE
  5
44E
330
2
100
AcDbEntity
  8
0
  6
ByBlock
 62
     7
100
AcDbLine
 10
-2024.470138263966
 20
71.38056118768195
 30
0.0
 11
-2024.379340164017
 21
71.20235988284424
 31
0.0
  0
LINE
  5
44F
330
2
100
AcDbEntity
  8
0
  6
ByBlock
 62
     7
100
AcDbLine
 10
-2029.924509430469
 20
82.41099531564229
 30
0.0
 11
-2030.369994718517
 21
82.18400922400638
 31
0.0
  0
LINE
  5
450
330
2
100
AcDbEntity
  8
0
  6
ByBlock
 62
     7
100
AcDbLine
 10
-2030.415393768491
 20
82.2731098764253
 30
0.0
 11
-2030.324595668544
 21
82.0949085715876
 31
0.0
  0
LINE
  5
45A
330
2
100
AcDbEntity
  8
計画２
  6
Continuous
 62
     7
100
AcDbLine
 10
-2024.009648878622
 20
69.30068536318251
 30
0.0
 11
-2024.160535851244
 21
69.45916285298176
 31
0.0
  0
LINE
  5
45C
330
2
100
AcDbEntity
  8
SPC-TXT
100
AcDbLine
 10
-2021.466747764989
 20
69.08068336318243
 30
0.0
 11
-2021.352916108452
 21
69.08358436318249
 31
0.0
  0
LINE
  5
45D
330
2
100
AcDbEntity
  8
計画２
  6
Continuous
 62
     7
100
AcDbLine
 10
-2022.972408973632
 20
69.0013888838752
 30
0.0
 11
-2025.943658973632
 21
76.42914988387516
 31
0.0
  0
LINE
  5
460
330
2
100
AcDbEntity
  8
SPC-TXT
100
AcDbLine
 10
-2022.846781905369
 20
69.22568536318252
 30
0.0
 11
-2024.007279168599
 21
69.22568536318252
 31
0.0
  0
LINE
  5
461
330
2
100
AcDbEntity
  8
SPC-TXT
100
AcDbLine
 10
-2022.876783375529
 20
69.30068536318254
 30
0.0
 11
-2024.009648878623
 21
69.30068536318251
 31
0.0
  0
LINE
  5
462
330
2
100
AcDbEntity
  8
0
  6
ByBlock
 62
     7
100
AcDbLine
 10
-2023.727318436154
 20
69.52365911644715
 30
0.0
 11
-2023.636520336206
 21
69.34545781160943
 31
0.0
  0
LINE
  5
463
330
2
100
AcDbEntity
  8
0
  6
ByBlock
 62
     7
100
AcDbLine
 10
-2023.236416124086
 20
69.66155371389821
 30
0.0
 11
-2023.68191938618
 21
69.43455846402834
 31
0.0
  0
LINE
  5
464
330
2
100
AcDbEntity
  8
0
  6
ByBlock
 62
     7
100
AcDbLine
 10
-2023.607816124085
 20
70.59001271389802
 30
0.0
 11
-2024.050008384086
 21
70.36470450385831
 31
0.0
  0
LINE
  5
465
330
2
100
AcDbEntity
  8
0
  6
ByBlock
 62
     7
100
AcDbLine
 10
-2024.09540743406
 20
70.45380515627711
 30
0.0
 11
-2024.004609334112
 21
70.2756038514394
 31
0.0
  0
TEXT
  5
46B
330
2
100
AcDbEntity
  8
SPC-TXT
 62
     0
100
AcDbText
 10
-2022.208531870983
 20
70.82261462060396
 30
0.0
 40
0.25
  1
　 排水管
100
AcDbText
  0
LEADER
  5
46C
330
2
100
AcDbEntity
  8
SPC-TXT
 62
     0
100
AcDbLeader
  3
\U+FF7A\U+FF8B\U+FF9F\U+FF70 - Standard
 76
     3
 10
-2023.354607865971
 20
69.3147311654393
 30
0.0
 10
-2022.249344994498
 20
70.69778660430741
 30
0.0
 10
-2019.533695467198
 20
70.69778660430741
 30
0.0
210
0.0
220
0.0
230
-1.0
1001
ACAD
1000
DSTYLE
1002
{
1070
    77
1070
     0
1002
}
  0
TEXT
  5
46F
330
2
100
AcDbEntity
  8
SPC-TXT
 62
     0
100
AcDbText
 10
-2037.063604001123
 20
80.64609792978098
 30
0.0
 40
0.25
  1
⑫ 暗渠排水材
100
AcDbText
  0
LEADER
  5
470
330
2
100
AcDbEntity
  8
SPC-TXT
 62
     0
100
AcDbLeader
  3
\U+FF7A\U+FF8B\U+FF9F\U+FF70 - Standard
 76
     3
 10
-2033.142517708926
 20
81.16773630825628
 30
0.0
 10
-2033.674823931248
 20
80.53440228527689
 30
0.0
 10
-2037.14244291724
 20
80.53440228527689
 30
0.0
211
-1.0
221
0.0
231
0.0
210
0.0
220
0.0
230
-1.0
1001
ACAD
1000
DSTYLE
1002
{
1070
    77
1070
     0
1002
}
  0
LEADER
  5
47B
330
2
100
AcDbEntity
  8
SPC-TXT
 62
     0
100
AcDbLeader
  3
\U+FF7A\U+FF8B\U+FF9F\U+FF70 - Standard
 76
     3
 10
-2032.09203409245
 20
81.77251277511549
 30
0.0
 10
-2033.701363727935
 20
79.44682894726092
 30
0.0
 10
-2037.168982713928
 20
79.44682894726092
 30
0.0
211
-1.0
221
0.0
231
0.0
210
0.0
220
0.0
230
-1.0
1001
ACAD
1000
DSTYLE
1002
{
1070
    77
1070
     0
1002
}
  0
TEXT
  5
47C
330
2
100
AcDbEntity
  8
SPC-TXT
 62
     0
100
AcDbText
 10
-2037.090143797811
 20
79.55852459176502
 30
0.0
 40
0.25
  1
⑮ 遮水シート
100
AcDbText
  0
ENDSEC
  0
SECTION
  2
OBJECTS
  0
DICTIONARY
  5
7
330
0
100
AcDbDictionary
281
     1
  3
ACAD_CIP_PREVIOUS_PRODUCT_INFO
350
593
  3
ACAD_COLOR
350
2F
  3
ACAD_DETAILVIEWSTYLE
350
588
  3
ACAD_GROUP
350
2B
  3
ACAD_LAYOUT
350
B
  3
ACAD_MATERIAL
350
2E
  3
ACAD_MLEADERSTYLE
350
4D7
  3
ACAD_MLINESTYLE
350
2C
  3
ACAD_PLOTSETTINGS
350
2D
  3
ACAD_PLOTSTYLENAME
350
6
  3
ACAD_SCALELIST
350
4C5
  3
ACAD_SECTIONVIEWSTYLE
350
586
  3
ACAD_TABLESTYLE
350
30
  3
ACAD_VISUALSTYLE
350
4AC
  3
ACDB_RECOMPOSE_DATA
350
797
  3
AcDbVariableDictionary
350
150
  3
DWGPROPS
350
798
  0
DICTIONARY
  5
547
330
1D
100
AcDbDictionary
280
     1
281
     1
  0
DICTIONARY
  5
11
330
10
100
AcDbDictionary
280
     1
281
     1
  3
ACAD_LAYERFILTERS
360
12
  3
ACAD_LAYERSTATES
360
13
  0
DICTIONARY
  5
52D
330
4
100
AcDbDictionary
280
     1
281
     1
  3
ADSK_XREC_LAYER_RECONCILED
360
52E
  0
DICTIONARY
  5
537
330
31
100
AcDbDictionary
280
     1
281
     1
  3
ADSK_XREC_LAYER_RECONCILED
360
538
  0
DICTIONARY
  5
539
330
15D
100
AcDbDictionary
280
     1
281
     1
  3
ADSK_XREC_LAYER_RECONCILED
360
53A
  0
DICTIONARY
  5
53B
330
15E
100
AcDbDictionary
280
     1
281
     1
  3
ADSK_XREC_LAYER_RECONCILED
360
53C
  0
XRECORD
  5
593
102
{ACAD_REACTORS
330
7
102
}
330
7
100
AcDbXrecord
280
     1
300
ACDLT
300
2022
300

  0
DICTIONARY
  5
2F
102
{ACAD_REACTORS
330
7
102
}
330
7
100
AcDbDictionary
281
     1
  0
DICTIONARY
  5
588
102
{ACAD_REACTORS
330
7
102
}
330
7
100
AcDbDictionary
281
     1
  3
Imperial24
350
589
  0
DICTIONARY
  5
2B
102
{ACAD_REACTORS
330
7
102
}
330
7
100
AcDbDictionary
281
     1
  0
DICTIONARY
  5
B
102
{ACAD_REACTORS
330
7
102
}
330
7
100
AcDbDictionary
281
     1
  3
Model
350
A
  3
レイアウト1
350
F
  0
DICTIONARY
  5
2E
102
{ACAD_REACTORS
330
7
102
}
330
7
100
AcDbDictionary
281
     1
  3
ByBlock
350
49C
  3
ByLayer
350
494
  3
Global
350
4A4
  0
DICTIONARY
  5
4D7
102
{ACAD_REACTORS
330
7
102
}
330
7
100
AcDbDictionary
281
     1
  3
Standard
350
4D8
  0
DICTIONARY
  5
2C
102
{ACAD_REACTORS
330
7
102
}
330
7
100
AcDbDictionary
281
     1
  3
Standard
350
32
  0
DICTIONARY
  5
2D
102
{ACAD_REACTORS
330
7
102
}
330
7
100
AcDbDictionary
281
     1
  0
ACDBDICTIONARYWDFLT
  5
6
102
{ACAD_REACTORS
330
7
102
}
330
7
100
AcDbDictionary
281
     1
  3
Normal
350
5
100
AcDbDictionaryWithDefault
340
5
  0
DICTIONARY
  5
4C5
102
{ACAD_REACTORS
330
7
102
}
330
7
100
AcDbDictionary
281
     1
  3
A0
350
4C6
  3
A1
350
4C7
  3
A2
350
4C8
  3
A3
350
4C9
  3
A4
350
4CA
  3
A5
350
4CB
  3
A6
350
4CC
  3
A7
350
4CD
  3
A8
350
4CE
  3
A9
350
4CF
  3
B0
350
4D0
  3
B1
350
4D1
  3
B2
350
4D2
  3
B3
350
4D3
  3
B4
350
4D4
  3
B5
350
4D5
  3
B6
350
4D6
  0
DICTIONARY
  5
586
102
{ACAD_REACTORS
330
7
102
}
330
7
100
AcDbDictionary
281
     1
  3
Imperial24
350
587
  0
DICTIONARY
  5
30
102
{ACAD_REACTORS
330
7
102
}
330
7
100
AcDbDictionary
281
     1
  3
Standard
350
33
  0
DICTIONARY
  5
4AC
102
{ACAD_REACTORS
330
7
102
}
330
7
100
AcDbDictionary
281
     1
  3
2dWireframe
350
4B2
  3
Basic
350
4B1
  3
Brighten
350
4B8
  3
ColorChange
350
4BC
  3
Conceptual
350
4B5
  3
Dim
350
4B7
  3
EdgeColorOff
350
4C4
  3
Facepattern
350
4BB
  3
Flat
350
4AD
  3
FlatWithEdges
350
4AE
  3
Gouraud
350
4AF
  3
GouraudWithEdges
350
4B0
  3
Hidden
350
4B4
  3
JitterOff
350
4C2
  3
Linepattern
350
4BA
  3
OverhangOff
350
4C3
  3
Realistic
350
4B6
  3
Shaded
350
4C1
  3
Shaded with edges
350
4C0
  3
Shades of Gray
350
4BD
  3
Sketchy
350
4BE
  3
Thicken
350
4B9
  3
Wireframe
350
4B3
  3
X-Ray
350
4BF
  0
XRECORD
  5
797
102
{ACAD_REACTORS
330
7
102
}
330
7
100
AcDbXrecord
280
     1
 90
        1
330
33
  0
DICTIONARY
  5
150
102
{ACAD_REACTORS
330
7
102
}
330
7
100
AcDbDictionary
281
     1
  3
CANNOSCALE
350
57F
  3
CMLEADERSTYLE
350
57E
  3
CTABLESTYLE
350
151
  3
CVIEWDETAILSTYLE
350
5D5
  3
CVIEWSECTIONSTYLE
350
5D6
  3
DIMASSOC
350
584
  3
HIDETEXT
350
582
  3
INDEXCTL
350
581
  3
SORTENTS
350
580
  3
XCLIPFRAME
350
795
  0
XRECORD
  5
798
102
{ACAD_REACTORS
330
7
102
}
330
7
100
AcDbXrecord
280
     1
  1
DWGPROPS COOKIE
  2

  3

  4

  6

  7

  8
T-UCHIDA
  9

300
=
301
=
302
=
303
=
304
=
305
=
306
=
307
=
308
=
309
=
 40
0.7023846412037038
 41
2453653.653645833
 42
2459454.7415625
  1

 90
        0
  0
DICTIONARY
  5
12
102
{ACAD_REACTORS
330
11
102
}
330
11
100
AcDbDictionary
280
     1
281
     1
  0
DICTIONARY
  5
13
102
{ACAD_REACTORS
330
11
102
}
330
11
100
AcDbDictionary
281
     1
  0
XRECORD
  5
52E
102
{ACAD_REACTORS
330
52D
102
}
330
52D
100
AcDbXrecord
280
     1
290
     1
  0
XRECORD
  5
538
102
{ACAD_REACTORS
330
537
102
}
330
537
100
AcDbXrecord
280
     1
290
     1
  0
XRECORD
  5
53A
102
{ACAD_REACTORS
330
539
102
}
330
539
100
AcDbXrecord
280
     1
290
     1
  0
XRECORD
  5
53C
102
{ACAD_REACTORS
330
53B
102
}
330
53B
100
AcDbXrecord
280
     1
290
     1
  0
ACDBDETAILVIEWSTYLE
  5
589
102
{ACAD_XDICTIONARY
360
7D3
102
}
102
{ACAD_REACTORS
330
588
102
}
330
588
100
AcDbModelDocViewStyle
 70
     0
  3
Imperial24
290
     0
100
AcDbDetailViewStyle
 70
     0
 71
     0
 90
        3
 71
     1
340
15
 40
0.24
340
0
 40
0.24
300

 40
0.36
280
     3
 71
     2
340
8
 90
       25
 71
     3
340
15
 40
0.24
 90
        1
 40
0.75
 90
        1
300
%<\AcVar ViewType \f "%tc1">% %<\AcVar ViewDetailId>%\PSCALE %<\AcVar ViewScale \f "%sn">%
 71
     4
340
8
 90
       25
340
8
 90
       25
280
     0
  0
LAYOUT
  5
A
102
{ACAD_XDICTIONARY
360
799
102
}
102
{ACAD_REACTORS
330
B
102
}
330
B
100
AcDbPlotSettings
  1

  2
DocuWorks Printer
  4
A3
  6

 40
5.408083438873291
 41
5.408078670501708
 42
5.4080810546875
 43
5.4080810546875
 44
297.0106506347656
 45
419.9889831542968
 46
-5.4
 47
-5.41
 48
-19.9999999935062
 49
-19.99999999984516
140
820.0
141
573.9999999955623
142
1.0
143
2.0
 70
 11940
 72
     1
 73
     1
 74
     4
  7
国CAD基準平面.ctb
 75
     0
147
0.5
148
19.9999999935062
149
19.99999999984516
100
AcDbLayout
  1
Model
 70
     1
 71
     0
 10
0.0
 20
0.0
 11
12.0
 21
9.0
 12
0.0
 22
0.0
 32
0.0
 14
0.0
 24
0.0
 34
0.0
 15
0.0
 25
0.0
 35
0.0
146
0.0
 13
0.0
 23
0.0
 33
0.0
 16
1.0
 26
0.0
 36
0.0
 17
0.0
 27
1.0
 37
0.0
 76
     0
330
2
331
492
  0
LAYOUT
  5
F
102
{ACAD_XDICTIONARY
360
79B
102
}
102
{ACAD_REACTORS
330
B
102
}
330
B
100
AcDbPlotSettings
  1

  2
\\KCSV-02\LBP3800_7F1
  4

  6

 40
0.0
 41
0.0
 42
0.0
 43
0.0
 44
0.0
 45
0.0
 46
0.0
 47
0.0
 48
0.0
 49
0.0
140
0.0
141
0.0
142
1.0
143
1.0
 70
   688
 72
     0
 73
     0
 74
     5
  7

 75
    16
147
1.0
148
0.0
149
0.0
100
AcDbLayout
  1
レイアウト1
 70
     1
 71
     1
 10
0.0
 20
0.0
 11
12.0
 21
9.0
 12
0.0
 22
0.0
 32
0.0
 14
1.000000000000000E+20
 24
1.000000000000000E+20
 34
1.000000000000000E+20
 15
-1.000000000000000E+20
 25
-1.000000000000000E+20
 35
-1.000000000000000E+20
146
0.0
 13
0.0
 23
0.0
 33
0.0
 16
1.0
 26
0.0
 36
0.0
 17
0.0
 27
1.0
 37
0.0
 76
     0
330
C
  0
MATERIAL
  5
49C
102
{ACAD_XDICTIONARY
360
49D
102
}
102
{ACAD_REACTORS
330
2E
102
}
330
2E
100
AcDbMaterial
  1
ByBlock
 72
     0
 43
0.0208333333333333
 43
0.0
 43
0.0
 43
0.0
 43
0.0
 43
0.0208333333333333
 43
0.0
 43
0.0
 43
0.0
 43
0.0
 43
1.0
 43
0.0
 43
0.0
 43
0.0
 43
0.0
 43
1.0
 77
     0
 47
0.0208333333333333
 47
0.0
 47
0.0
 47
0.0
 47
0.0
 47
0.0208333333333333
 47
0.0
 47
0.0
 47
0.0
 47
0.0
 47
1.0
 47
0.0
 47
0.0
 47
0.0
 47
0.0
 47
1.0
171
     0
 49
0.0208333333333333
 49
0.0
 49
0.0
 49
0.0
 49
0.0
 49
0.0208333333333333
 49
0.0
 49
0.0
 49
0.0
 49
0.0
 49
1.0
 49
0.0
 49
0.0
 49
0.0
 49
0.0
 49
1.0
175
     0
142
0.0208333333333333
142
0.0
142
0.0
142
0.0
142
0.0
142
0.0208333333333333
142
0.0
142
0.0
142
0.0
142
0.0
142
1.0
142
0.0
142
0.0
142
0.0
142
0.0
142
1.0
179
     0
144
0.0208333333333333
144
0.0
144
0.0
144
0.0
144
0.0
144
0.0208333333333333
144
0.0
144
0.0
144
0.0
144
0.0
144
1.0
144
0.0
144
0.0
144
0.0
144
0.0
144
1.0
147
0.0208333333333333
147
0.0
147
0.0
147
0.0
147
0.0
147
0.0208333333333333
147
0.0
147
0.0
147
0.0
147
0.0
147
1.0
147
0.0
147
0.0
147
0.0
147
0.0
147
1.0
  0
MATERIAL
  5
494
102
{ACAD_XDICTIONARY
360
495
102
}
102
{ACAD_REACTORS
330
2E
102
}
330
2E
100
AcDbMaterial
  1
ByLayer
 72
     0
 43
0.0208333333333333
 43
0.0
 43
0.0
 43
0.0
 43
0.0
 43
0.0208333333333333
 43
0.0
 43
0.0
 43
0.0
 43
0.0
 43
1.0
 43
0.0
 43
0.0
 43
0.0
 43
0.0
 43
1.0
 77
     0
 47
0.0208333333333333
 47
0.0
 47
0.0
 47
0.0
 47
0.0
 47
0.0208333333333333
 47
0.0
 47
0.0
 47
0.0
 47
0.0
 47
1.0
 47
0.0
 47
0.0
 47
0.0
 47
0.0
 47
1.0
171
     0
 49
0.0208333333333333
 49
0.0
 49
0.0
 49
0.0
 49
0.0
 49
0.0208333333333333
 49
0.0
 49
0.0
 49
0.0
 49
0.0
 49
1.0
 49
0.0
 49
0.0
 49
0.0
 49
0.0
 49
1.0
175
     0
142
0.0208333333333333
142
0.0
142
0.0
142
0.0
142
0.0
142
0.0208333333333333
142
0.0
142
0.0
142
0.0
142
0.0
142
1.0
142
0.0
142
0.0
142
0.0
142
0.0
142
1.0
179
     0
144
0.0208333333333333
144
0.0
144
0.0
144
0.0
144
0.0
144
0.0208333333333333
144
0.0
144
0.0
144
0.0
144
0.0
144
1.0
144
0.0
144
0.0
144
0.0
144
0.0
144
1.0
147
0.0208333333333333
147
0.0
147
0.0
147
0.0
147
0.0
147
0.0208333333333333
147
0.0
147
0.0
147
0.0
147
0.0
147
1.0
147
0.0
147
0.0
147
0.0
147
0.0
147
1.0
  0
MATERIAL
  5
4A4
102
{ACAD_XDICTIONARY
360
4A5
102
}
102
{ACAD_REACTORS
330
2E
102
}
330
2E
100
AcDbMaterial
  1
Global
 72
     0
 43
0.0208333333333333
 43
0.0
 43
0.0
 43
0.0
 43
0.0
 43
0.0208333333333333
 43
0.0
 43
0.0
 43
0.0
 43
0.0
 43
1.0
 43
0.0
 43
0.0
 43
0.0
 43
0.0
 43
1.0
 77
     0
 47
0.0208333333333333
 47
0.0
 47
0.0
 47
0.0
 47
0.0
 47
0.0208333333333333
 47
0.0
 47
0.0
 47
0.0
 47
0.0
 47
1.0
 47
0.0
 47
0.0
 47
0.0
 47
0.0
 47
1.0
171
     0
 49
0.0208333333333333
 49
0.0
 49
0.0
 49
0.0
 49
0.0
 49
0.0208333333333333
 49
0.0
 49
0.0
 49
0.0
 49
0.0
 49
1.0
 49
0.0
 49
0.0
 49
0.0
 49
0.0
 49
1.0
175
     0
142
0.0208333333333333
142
0.0
142
0.0
142
0.0
142
0.0
142
0.0208333333333333
142
0.0
142
0.0
142
0.0
142
0.0
142
1.0
142
0.0
142
0.0
142
0.0
142
0.0
142
1.0
179
     0
144
0.0208333333333333
144
0.0
144
0.0
144
0.0
144
0.0
144
0.0208333333333333
144
0.0
144
0.0
144
0.0
144
0.0
144
1.0
144
0.0
144
0.0
144
0.0
144
0.0
144
1.0
147
0.0208333333333333
147
0.0
147
0.0
147
0.0
147
0.0
147
0.0208333333333333
147
0.0
147
0.0
147
0.0
147
0.0
147
1.0
147
0.0
147
0.0
147
0.0
147
0.0
147
1.0
  0
MLEADERSTYLE
  5
4D8
102
{ACAD_REACTORS
330
4D7
102
}
330
4D7
100
AcDbMLeaderStyle
170
     2
171
     1
172
     0
 90
        2
 40
0.0
 41
0.0
173
     1
 91
-1056964608
340
19
 92
       -2
290
     1
 42
0.09
291
     1
 43
0.36
  3
Standard
 44
0.18
300

342
15
174
     1
178
     6
175
     1
176
     0
 93
-1056964608
 45
0.18
292
     0
297
     0
 46
0.18
 94
-1056964608
 47
1.0
 49
1.0
140
1.0
293
     1
141
0.0
294
     1
177
     0
142
1.0
295
     0
296
     0
143
0.125
1001
ACAD_MLEADERVER
1070
     2
  0
MLINESTYLE
  5
32
102
{ACAD_REACTORS
330
2C
102
}
330
2C
100
AcDbMlineStyle
  2
STANDARD
 70
     0
  3

 62
   256
 51
90.0
 52
90.0
 71
     2
 49
0.5
 62
   256
  6
BYLAYER
 49
-0.5
 62
   256
  6
BYLAYER
  0
ACDBPLACEHOLDER
  5
5
102
{ACAD_REACTORS
330
6
102
}
330
6
  0
SCALE
  5
4C6
102
{ACAD_REACTORS
330
4C5
102
}
330
4C5
100
AcDbScale
 70
     0
300
1:1
140
1.0
141
1.0
290
     1
  0
SCALE
  5
4C7
102
{ACAD_REACTORS
330
4C5
102
}
330
4C5
100
AcDbScale
 70
     0
300
1/128" = 1'-0"
140
0.0078125
141
12.0
290
     0
  0
SCALE
  5
4C8
102
{ACAD_REACTORS
330
4C5
102
}
330
4C5
100
AcDbScale
 70
     0
300
1/64" = 1'-0"
140
0.015625
141
12.0
290
     0
  0
SCALE
  5
4C9
102
{ACAD_REACTORS
330
4C5
102
}
330
4C5
100
AcDbScale
 70
     0
300
1/32" = 1'-0"
140
0.03125
141
12.0
290
     0
  0
SCALE
  5
4CA
102
{ACAD_REACTORS
330
4C5
102
}
330
4C5
100
AcDbScale
 70
     0
300
1/16" = 1'-0"
140
0.0625
141
12.0
290
     0
  0
SCALE
  5
4CB
102
{ACAD_REACTORS
330
4C5
102
}
330
4C5
100
AcDbScale
 70
     0
300
3/32" = 1'-0"
140
0.09375
141
12.0
290
     0
  0
SCALE
  5
4CC
102
{ACAD_REACTORS
330
4C5
102
}
330
4C5
100
AcDbScale
 70
     0
300
1/8" = 1'-0"
140
0.125
141
12.0
290
     0
  0
SCALE
  5
4CD
102
{ACAD_REACTORS
330
4C5
102
}
330
4C5
100
AcDbScale
 70
     0
300
3/16" = 1'-0"
140
0.1875
141
12.0
290
     0
  0
SCALE
  5
4CE
102
{ACAD_REACTORS
330
4C5
102
}
330
4C5
100
AcDbScale
 70
     0
300
1/4" = 1'-0"
140
0.25
141
12.0
290
     0
  0
SCALE
  5
4CF
102
{ACAD_REACTORS
330
4C5
102
}
330
4C5
100
AcDbScale
 70
     0
300
3/8" = 1'-0"
140
0.375
141
12.0
290
     0
  0
SCALE
  5
4D0
102
{ACAD_REACTORS
330
4C5
102
}
330
4C5
100
AcDbScale
 70
     0
300
1/2" = 1'-0"
140
0.5
141
12.0
290
     0
  0
SCALE
  5
4D1
102
{ACAD_REACTORS
330
4C5
102
}
330
4C5
100
AcDbScale
 70
     0
300
3/4" = 1'-0"
140
0.75
141
12.0
290
     0
  0
SCALE
  5
4D2
102
{ACAD_REACTORS
330
4C5
102
}
330
4C5
100
AcDbScale
 70
     0
300
1" = 1'-0"
140
1.0
141
12.0
290
     0
  0
SCALE
  5
4D3
102
{ACAD_REACTORS
330
4C5
102
}
330
4C5
100
AcDbScale
 70
     0
300
1-1/2" = 1'-0"
140
1.5
141
12.0
290
     0
  0
SCALE
  5
4D4
102
{ACAD_REACTORS
330
4C5
102
}
330
4C5
100
AcDbScale
 70
     0
300
3" = 1'-0"
140
3.0
141
12.0
290
     0
  0
SCALE
  5
4D5
102
{ACAD_REACTORS
330
4C5
102
}
330
4C5
100
AcDbScale
 70
     0
300
6" = 1'-0"
140
6.0
141
12.0
290
     0
  0
SCALE
  5
4D6
102
{ACAD_REACTORS
330
4C5
102
}
330
4C5
100
AcDbScale
 70
     0
300
1'-0" = 1'-0"
140
12.0
141
12.0
290
     0
  0
ACDBSECTIONVIEWSTYLE
  5
587
102
{ACAD_XDICTIONARY
360
7D1
102
}
102
{ACAD_REACTORS
330
586
102
}
330
586
100
AcDbModelDocViewStyle
 70
     0
  3
Imperial24
290
     0
100
AcDbSectionViewStyle
 70
     0
 71
     0
 90
       78
 71
     1
340
15
 40
0.24
340
0
340
0
 40
0.24
300
I, O, Q, S, X, Z
 40
0.48
 90
        3
 40
0.18
 90
        1
 71
     2
340
8
 90
       25
340
8
 90
       50
 40
0.24
 40
0.0
 40
0.24
 71
     3
340
15
 40
0.24
 90
        1
 40
0.75
 90
        1
300
%<\AcVar ViewType \f "%tc1">% %<\AcVar ViewSectionStartId>%-%<\AcVar ViewSectionEndId>%\PSCALE %<\AcVar ViewScale \f "%sn">%
 71
     4
300
ANSI31
 40
1.0
 90
        0
290
     0
290
     0
 90
        6
 40
0.0
 40
1.570796326794896
 40
0.2617993877991494
 40
1.308996938995747
 40
-0.2617993877991494
 40
1.832595714594046
  0
TABLESTYLE
  5
33
102
{ACAD_XDICTIONARY
360
53F
102
}
102
{ACAD_REACTORS
330
30
102
}
330
30
100
AcDbTableStyle
  3
Standard
 70
     0
 71
     0
 40
0.06
 41
0.06
280
     0
281
     0
  7
Standard
140
0.18
170
     2
 62
     0
 63
     7
283
     0
274
    -2
284
     1
 64
     0
275
    -2
285
     1
 65
     0
276
    -2
286
     1
 66
     0
277
    -2
287
     1
 67
     0
278
    -2
288
     1
 68
     0
279
    -2
289
     1
 69
     0
  7
Standard
140
0.25
170
     5
 62
     0
 63
     7
283
     0
274
    -2
284
     1
 64
     0
275
    -2
285
     1
 65
     0
276
    -2
286
     1
 66
     0
277
    -2
287
     1
 67
     0
278
    -2
288
     1
 68
     0
279
    -2
289
     1
 69
     0
  7
Standard
140
0.18
170
     5
 62
     0
 63
     7
283
     0
274
    -2
284
     1
 64
     0
275
    -2
285
     1
 65
     0
276
    -2
286
     1
 66
     0
277
    -2
287
     1
 67
     0
278
    -2
288
     1
 68
     0
279
    -2
289
     1
 69
     0
  0
VISUALSTYLE
  5
4B2
102
{ACAD_XDICTIONARY
360
7AB
102
}
102
{ACAD_REACTORS
330
4AC
102
}
330
4AC
100
AcDbVisualStyle
  2
2dWireframe
 70
     4
 71
     0
 72
     2
 73
     0
 90
        0
 40
-0.6
 41
-30.0
 62
     5
 63
     7
 74
     1
 91
        4
 64
     7
 65
   257
 75
     1
175
     1
 42
1.0
 92
        0
 66
   257
 43
1.0
 76
     1
 77
     6
 78
     2
 67
     7
 79
     5
170
     0
171
     0
290
     0
174
     0
 93
        1
 44
0.0
173
     0
291
     0
 45
0.0
1001
ACAD
1000
AcDbSavedByObjectVersion
1070
     0
  0
VISUALSTYLE
  5
4B1
102
{ACAD_XDICTIONARY
360
7A9
102
}
102
{ACAD_REACTORS
330
4AC
102
}
330
4AC
100
AcDbVisualStyle
  2
Basic
 70
     7
 71
     1
 72
     0
 73
     1
 90
        0
 40
-0.6
 41
-30.0
 62
     5
 63
     7
 74
     0
 91
        4
 64
     7
 65
   257
 75
     1
175
     1
 42
1.0
 92
        8
 66
     7
 43
1.0
 76
     1
 77
     6
 78
     2
 67
     7
 79
     5
170
     0
171
     0
290
     0
174
     0
 93
        1
 44
0.0
173
     0
291
     1
 45
0.0
1001
ACAD
1000
AcDbSavedByObjectVersion
1070
     0
  0
VISUALSTYLE
  5
4B8
102
{ACAD_XDICTIONARY
360
7B7
102
}
102
{ACAD_REACTORS
330
4AC
102
}
330
4AC
100
AcDbVisualStyle
  2
Brighten
 70
    12
 71
     2
 72
     2
 73
     0
 90
        0
 40
-0.6
 41
-30.0
 62
     5
 63
     7
 74
     1
 91
        4
 64
     7
 65
   257
 75
     1
175
     1
 42
1.0
 92
        8
 66
     7
 43
1.0
 76
     1
 77
     6
 78
     2
 67
     7
 79
     5
170
     0
171
     0
290
     0
174
     0
 93
        1
 44
50.0
173
     0
291
     1
 45
0.0
1001
ACAD
1000
AcDbSavedByObjectVersion
1070
     0
  0
VISUALSTYLE
  5
4BC
102
{ACAD_XDICTIONARY
360
7BF
102
}
102
{ACAD_REACTORS
330
4AC
102
}
330
4AC
100
AcDbVisualStyle
  2
ColorChange
 70
    16
 71
     2
 72
     2
 73
     3
 90
        0
 40
-0.6
 41
-30.0
 62
     5
 63
     8
 74
     1
 91
        4
 64
     7
 65
   257
 75
     1
175
     1
 42
1.0
 92
        8
 66
     8
 43
1.0
 76
     1
 77
     6
 78
     2
 67
     7
 79
     5
170
     0
171
     0
290
     0
174
     0
 93
        1
 44
0.0
173
     0
291
     1
 45
0.0
1001
ACAD
1000
AcDbSavedByObjectVersion
1070
     0
  0
VISUALSTYLE
  5
4B5
102
{ACAD_XDICTIONARY
360
7B1
102
}
102
{ACAD_REACTORS
330
4AC
102
}
330
4AC
100
AcDbVisualStyle
  2
Conceptual
 70
     9
 71
     3
 72
     2
 73
     0
 90
        0
 40
-0.6
 41
-30.0
 62
     5
 63
     7
 74
     2
 91
        2
 64
     7
 65
   257
 75
     1
175
     1
 42
179.0
 92
        8
 66
     7
 43
1.0
 76
     1
 77
     6
 78
     2
 67
     7
 79
     3
170
     0
171
     0
290
     0
174
     0
 93
        1
 44
0.0
173
     0
291
     0
 45
0.0
1001
ACAD
1000
AcDbSavedByObjectVersion
1070
     0
  0
VISUALSTYLE
  5
4B7
102
{ACAD_XDICTIONARY
360
7B5
102
}
102
{ACAD_REACTORS
330
4AC
102
}
330
4AC
100
AcDbVisualStyle
  2
Dim
 70
    11
 71
     2
 72
     2
 73
     0
 90
        0
 40
-0.6
 41
-30.0
 62
     5
 63
     7
 74
     1
 91
        4
 64
     7
 65
   257
 75
     1
175
     1
 42
1.0
 92
        8
 66
     7
 43
1.0
 76
     1
 77
     6
 78
     2
 67
     7
 79
     5
170
     0
171
     0
290
     0
174
     0
 93
        1
 44
-50.0
173
     0
291
     1
 45
0.0
1001
ACAD
1000
AcDbSavedByObjectVersion
1070
     0
  0
VISUALSTYLE
  5
4C4
102
{ACAD_XDICTIONARY
360
7CF
102
}
102
{ACAD_REACTORS
330
4AC
102
}
330
4AC
100
AcDbVisualStyle
  2
EdgeColorOff
 70
    22
 71
     2
 72
     2
 73
     0
 90
        0
 40
-0.6
 41
-30.0
 62
     5
 63
     7
 74
     1
 91
        4
 64
     7
 65
   257
 75
     1
175
     1
 42
1.0
 92
        8
 66
     7
 43
1.0
 76
     1
 77
     6
 78
     2
 67
     7
 79
     5
170
     0
171
     0
290
     0
174
     0
 93
        1
 44
0.0
173
     0
291
     1
 45
0.0
1001
ACAD
1000
AcDbSavedByObjectVersion
1070
     0
  0
VISUALSTYLE
  5
4BB
102
{ACAD_XDICTIONARY
360
7BD
102
}
102
{ACAD_REACTORS
330
4AC
102
}
330
4AC
100
AcDbVisualStyle
  2
Facepattern
 70
    15
 71
     2
 72
     2
 73
     0
 90
        0
 40
-0.6
 41
-30.0
 62
     5
 63
     7
 74
     1
 91
        4
 64
     7
 65
   257
 75
     1
175
     1
 42
1.0
 92
        8
 66
     7
 43
1.0
 76
     1
 77
     6
 78
     2
 67
     7
 79
     5
170
     0
171
     0
290
     0
174
     0
 93
        1
 44
0.0
173
     0
291
     1
 45
0.0
1001
ACAD
1000
AcDbSavedByObjectVersion
1070
     0
  0
VISUALSTYLE
  5
4AD
102
{ACAD_XDICTIONARY
360
7A1
102
}
102
{ACAD_REACTORS
330
4AC
102
}
330
4AC
100
AcDbVisualStyle
  2
Flat
 70
     0
 71
     2
 72
     1
 73
     1
 90
        2
 40
-0.6
 41
30.0
 62
     5
 63
     7
 74
     0
 91
        0
 64
     7
 65
   257
 75
     1
175
     1
 42
1.0
 92
        8
 66
     7
 43
1.0
 76
     1
 77
     6
 78
     2
 67
     7
 79
     5
170
     0
171
     0
290
     0
174
     0
 93
       13
 44
0.0
173
     0
291
     1
 45
0.0
1001
ACAD
1000
AcDbSavedByObjectVersion
1070
     0
  0
VISUALSTYLE
  5
4AE
102
{ACAD_XDICTIONARY
360
7A3
102
}
102
{ACAD_REACTORS
330
4AC
102
}
330
4AC
100
AcDbVisualStyle
  2
FlatWithEdges
 70
     1
 71
     2
 72
     1
 73
     1
 90
        2
 40
-0.6
 41
30.0
 62
     5
 63
     7
 74
     1
 91
        0
 64
     7
 65
   257
 75
     1
175
     1
 42
1.0
 92
        0
 66
   257
 43
1.0
 76
     1
 77
     6
 78
     2
 67
     7
 79
     5
170
     0
171
     0
290
     0
174
     0
 93
       13
 44
0.0
173
     0
291
     1
 45
0.0
1001
ACAD
1000
AcDbSavedByObjectVersion
1070
     0
  0
VISUALSTYLE
  5
4AF
102
{ACAD_XDICTIONARY
360
7A5
102
}
102
{ACAD_REACTORS
330
4AC
102
}
330
4AC
100
AcDbVisualStyle
  2
Gouraud
 70
     2
 71
     2
 72
     2
 73
     1
 90
        2
 40
-0.6
 41
30.0
 62
     5
 63
     7
 74
     0
 91
        0
 64
     7
 65
   257
 75
     1
175
     1
 42
1.0
 92
        0
 66
     7
 43
1.0
 76
     1
 77
     6
 78
     2
 67
     7
 79
     5
170
     0
171
     0
290
     0
174
     0
 93
       13
 44
0.0
173
     0
291
     1
 45
0.0
1001
ACAD
1000
AcDbSavedByObjectVersion
1070
     0
  0
VISUALSTYLE
  5
4B0
102
{ACAD_XDICTIONARY
360
7A7
102
}
102
{ACAD_REACTORS
330
4AC
102
}
330
4AC
100
AcDbVisualStyle
  2
GouraudWithEdges
 70
     3
 71
     2
 72
     2
 73
     1
 90
        2
 40
-0.6
 41
30.0
 62
     5
 63
     7
 74
     1
 91
        0
 64
     7
 65
   257
 75
     1
175
     1
 42
1.0
 92
        0
 66
   257
 43
1.0
 76
     1
 77
     6
 78
     2
 67
     7
 79
     5
170
     0
171
     0
290
     0
174
     0
 93
       13
 44
0.0
173
     0
291
     1
 45
0.0
1001
ACAD
1000
AcDbSavedByObjectVersion
1070
     0
  0
VISUALSTYLE
  5
4B4
102
{ACAD_XDICTIONARY
360
7AF
102
}
102
{ACAD_REACTORS
330
4AC
102
}
330
4AC
100
AcDbVisualStyle
  2
Hidden
 70
     6
 71
     1
 72
     2
 73
     2
 90
        0
 40
-0.6
 41
-30.0
 62
     5
 63
     7
 74
     2
 91
        2
 64
     7
 65
   257
 75
     2
175
     1
 42
40.0
 92
        0
 66
   257
 43
1.0
 76
     1
 77
     6
 78
     2
 67
     7
 79
     3
170
     0
171
     0
290
     0
174
     0
 93
        1
 44
0.0
173
     0
291
     0
 45
0.0
1001
ACAD
1000
AcDbSavedByObjectVersion
1070
     0
  0
VISUALSTYLE
  5
4C2
102
{ACAD_XDICTIONARY
360
7CB
102
}
102
{ACAD_REACTORS
330
4AC
102
}
330
4AC
100
AcDbVisualStyle
  2
JitterOff
 70
    20
 71
     2
 72
     2
 73
     0
 90
        0
 40
-0.6
 41
-30.0
 62
     5
 63
     7
 74
     1
 91
        4
 64
     7
 65
   257
 75
     1
175
     1
 42
1.0
 92
       10
 66
     7
 43
1.0
 76
     1
 77
     6
 78
     2
 67
     7
 79
     5
170
     0
171
     0
290
     0
174
     0
 93
        1
 44
0.0
173
     0
291
     1
 45
0.0
1001
ACAD
1000
AcDbSavedByObjectVersion
1070
     0
  0
VISUALSTYLE
  5
4BA
102
{ACAD_XDICTIONARY
360
7BB
102
}
102
{ACAD_REACTORS
330
4AC
102
}
330
4AC
100
AcDbVisualStyle
  2
Linepattern
 70
    14
 71
     2
 72
     2
 73
     0
 90
        0
 40
-0.6
 41
-30.0
 62
     5
 63
     7
 74
     1
 91
        4
 64
     7
 65
   257
 75
     7
175
     7
 42
1.0
 92
        8
 66
     7
 43
1.0
 76
     1
 77
     6
 78
     2
 67
     7
 79
     5
170
     0
171
     0
290
     0
174
     0
 93
        1
 44
0.0
173
     0
291
     1
 45
0.0
1001
ACAD
1000
AcDbSavedByObjectVersion
1070
     0
  0
VISUALSTYLE
  5
4C3
102
{ACAD_XDICTIONARY
360
7CD
102
}
102
{ACAD_REACTORS
330
4AC
102
}
330
4AC
100
AcDbVisualStyle
  2
OverhangOff
 70
    21
 71
     2
 72
     2
 73
     0
 90
        0
 40
-0.6
 41
-30.0
 62
     5
 63
     7
 74
     1
 91
        4
 64
     7
 65
   257
 75
     1
175
     1
 42
1.0
 92
        9
 66
     7
 43
1.0
 76
     1
 77
     6
 78
     2
 67
     7
 79
     5
170
     0
171
     0
290
     0
174
     0
 93
        1
 44
0.0
173
     0
291
     1
 45
0.0
1001
ACAD
1000
AcDbSavedByObjectVersion
1070
     0
  0
VISUALSTYLE
  5
4B6
102
{ACAD_XDICTIONARY
360
7B3
102
}
102
{ACAD_REACTORS
330
4AC
102
}
330
4AC
100
AcDbVisualStyle
  2
Realistic
 70
     8
 71
     2
 72
     2
 73
     0
 90
        2
 40
-0.6
 41
30.0
 62
     5
 63
     7
 74
     0
 91
        0
 64
     7
 65
   257
 75
     1
175
     1
 42
1.0
 92
        8
 66
   257
 43
1.0
 76
     1
 77
     6
 78
     2
 67
     7
 79
     3
170
     0
171
     0
290
     0
174
     0
 93
       13
 44
0.0
173
     0
291
     0
 45
0.0
1001
ACAD
1000
AcDbSavedByObjectVersion
1070
     0
  0
VISUALSTYLE
  5
4C1
102
{ACAD_XDICTIONARY
360
7C9
102
}
102
{ACAD_REACTORS
330
4AC
102
}
330
4AC
100
AcDbVisualStyle
  2
Shaded
 70
    27
 71
     2
 72
     2
 73
     1
 90
        2
 40
-0.6
 41
30.0
 62
     5
 63
     7
 74
     0
 91
        4
 64
     7
 65
   257
 75
     1
175
     1
 42
1.0
 92
        8
 66
   257
 43
1.0
 76
     1
 77
     6
 78
     2
 67
     8
 79
     3
170
     0
171
     0
290
     0
174
     0
 93
        5
 44
0.0
173
     0
291
     0
 45
0.0
1001
ACAD
1000
AcDbSavedByObjectVersion
1070
     0
  0
VISUALSTYLE
  5
4C0
102
{ACAD_XDICTIONARY
360
7C7
102
}
102
{ACAD_REACTORS
330
4AC
102
}
330
4AC
100
AcDbVisualStyle
  2
Shaded with edges
 70
    26
 71
     2
 72
     2
 73
     1
 90
        2
 40
-0.6
 41
30.0
 62
     5
 63
     7
 74
     1
 91
        2
 64
     7
 65
   257
 75
     2
175
     1
 42
1.0
 92
        8
 66
   257
 43
1.0
 76
     1
 77
     6
 78
     2
 67
     7
 79
     3
170
     0
171
     0
290
     0
174
     0
 93
        5
 44
0.0
173
     0
291
     0
 45
0.0
1001
ACAD
1000
AcDbSavedByObjectVersion
1070
     0
  0
VISUALSTYLE
  5
4BD
102
{ACAD_XDICTIONARY
360
7C1
102
}
102
{ACAD_REACTORS
330
4AC
102
}
330
4AC
100
AcDbVisualStyle
  2
Shades of Gray
 70
    23
 71
     2
 72
     2
 73
     3
 90
        0
 40
-0.6
 41
-30.0
 62
     5
 63
     7
 74
     2
 91
        2
 64
     7
 65
     7
 75
     1
175
     1
 42
40.0
 92
        8
 66
     7
 43
1.0
 76
     1
 77
     6
 78
     2
 67
     7
 79
     3
170
     0
171
     0
290
     0
174
     0
 93
        1
 44
0.0
173
     0
291
     0
 45
0.0
1001
ACAD
1000
AcDbSavedByObjectVersion
1070
     0
  0
VISUALSTYLE
  5
4BE
102
{ACAD_XDICTIONARY
360
7C3
102
}
102
{ACAD_REACTORS
330
4AC
102
}
330
4AC
100
AcDbVisualStyle
  2
Sketchy
 70
    24
 71
     1
 72
     2
 73
     2
 90
        0
 40
-0.6
 41
-30.0
 62
     5
 63
     7
 74
     2
 91
        2
 64
     7
 65
     7
 75
     1
175
     1
 42
40.0
 92
       11
 66
     7
 43
1.0
 76
     1
 77
     6
 78
     2
 67
     7
 79
     6
170
     0
171
     0
290
     0
174
     0
 93
        1
 44
0.0
173
     0
291
     0
 45
0.0
1001
ACAD
1000
AcDbSavedByObjectVersion
1070
     0
  0
VISUALSTYLE
  5
4B9
102
{ACAD_XDICTIONARY
360
7B9
102
}
102
{ACAD_REACTORS
330
4AC
102
}
330
4AC
100
AcDbVisualStyle
  2
Thicken
 70
    13
 71
     2
 72
     2
 73
     0
 90
        0
 40
-0.6
 41
-30.0
 62
     5
 63
     7
 74
     1
 91
        4
 64
     7
 65
   257
 75
     1
175
     1
 42
1.0
 92
       12
 66
     7
 43
1.0
 76
     1
 77
     6
 78
     2
 67
     7
 79
     5
170
     0
171
     0
290
     0
174
     0
 93
        1
 44
0.0
173
     0
291
     1
 45
0.0
1001
ACAD
1000
AcDbSavedByObjectVersion
1070
     0
  0
VISUALSTYLE
  5
4B3
102
{ACAD_XDICTIONARY
360
7AD
102
}
102
{ACAD_REACTORS
330
4AC
102
}
330
4AC
100
AcDbVisualStyle
  2
Wireframe
 70
     5
 71
     0
 72
     2
 73
     0
 90
        0
 40
-0.6
 41
-30.0
 62
     5
 63
     7
 74
     1
 91
        4
 64
     7
 65
   257
 75
     1
175
     1
 42
1.0
 92
        0
 66
   257
 43
1.0
 76
     1
 77
     6
 78
     2
 67
     7
 79
     3
170
     0
171
     0
290
     0
174
     0
 93
        1
 44
0.0
173
     0
291
     0
 45
0.0
1001
ACAD
1000
AcDbSavedByObjectVersion
1070
     0
  0
VISUALSTYLE
  5
4BF
102
{ACAD_XDICTIONARY
360
7C5
102
}
102
{ACAD_REACTORS
330
4AC
102
}
330
4AC
100
AcDbVisualStyle
  2
X-Ray
 70
    25
 71
     2
 72
     2
 73
     1
 90
        1
 40
0.5
 41
-30.0
 62
     5
 63
     7
 74
     1
 91
        0
 64
     7
 65
   257
 75
     1
175
     1
 42
1.0
 92
        8
 66
     7
 43
1.0
 76
     1
 77
     6
 78
     2
 67
     7
 79
     3
170
     0
171
     0
290
     0
174
     0
 93
       13
 44
0.0
173
     0
291
     0
 45
0.0
1001
ACAD
1000
AcDbSavedByObjectVersion
1070
     0
  0
DICTIONARYVAR
  5
57F
102
{ACAD_REACTORS
330
150
102
}
330
150
100
DictionaryVariables
280
     0
  1
1:1
  0
DICTIONARYVAR
  5
57E
102
{ACAD_REACTORS
330
150
102
}
330
150
100
DictionaryVariables
280
     0
  1
STANDARD
  0
DICTIONARYVAR
  5
151
102
{ACAD_REACTORS
330
150
102
}
330
150
100
DictionaryVariables
280
     0
  1
STANDARD
  0
DICTIONARYVAR
  5
5D5
102
{ACAD_REACTORS
330
150
102
}
330
150
100
DictionaryVariables
280
     0
  1
Imperial24
  0
DICTIONARYVAR
  5
5D6
102
{ACAD_REACTORS
330
150
102
}
330
150
100
DictionaryVariables
280
     0
  1
Imperial24
  0
DICTIONARYVAR
  5
584
102
{ACAD_REACTORS
330
150
102
}
330
150
100
DictionaryVariables
280
     0
  1
1
  0
DICTIONARYVAR
  5
582
102
{ACAD_REACTORS
330
150
102
}
330
150
100
DictionaryVariables
280
     0
  1
1
  0
DICTIONARYVAR
  5
581
102
{ACAD_REACTORS
330
150
102
}
330
150
100
DictionaryVariables
280
     0
  1
0
  0
DICTIONARYVAR
  5
580
102
{ACAD_REACTORS
330
150
102
}
330
150
100
DictionaryVariables
280
     0
  1
127
  0
DICTIONARYVAR
  5
795
102
{ACAD_REACTORS
330
150
102
}
330
150
100
DictionaryVariables
280
     0
  1
2
  0
DICTIONARY
  5
7D3
330
589
100
AcDbDictionary
280
     1
281
     1
  3
ACAD_XREC_ROUNDTRIP
360
7D4
  0
DICTIONARY
  5
799
330
A
100
AcDbDictionary
280
     1
281
     1
  3
ACAD_XREC_ROUNDTRIP
360
79A
  0
DICTIONARY
  5
79B
330
F
100
AcDbDictionary
280
     1
281
     1
  3
ACAD_XREC_ROUNDTRIP
360
79C
  0
DICTIONARY
  5
49D
330
49C
100
AcDbDictionary
280
     1
281
     1
  3
ACAD_XREC_ROUNDTRIP
360
79F
  3
BUMPTILE
360
49F
  3
DIFFUSETILE
360
49E
  3
OPACITYTILE
360
4A2
  3
REFLECTIONTILE
360
4A1
  3
REFRACTIONTILE
360
4A3
  3
SPECULARTILE
360
4A0
  0
DICTIONARY
  5
495
330
494
100
AcDbDictionary
280
     1
281
     1
  3
ACAD_XREC_ROUNDTRIP
360
79E
  3
BUMPTILE
360
497
  3
DIFFUSETILE
360
496
  3
OPACITYTILE
360
49A
  3
REFLECTIONTILE
360
499
  3
REFRACTIONTILE
360
49B
  3
SPECULARTILE
360
498
  0
DICTIONARY
  5
4A5
330
4A4
100
AcDbDictionary
280
     1
281
     1
  3
ACAD_XREC_ROUNDTRIP
360
7A0
  3
BUMPTILE
360
4A7
  3
DIFFUSETILE
360
4A6
  3
OPACITYTILE
360
4AA
  3
REFLECTIONTILE
360
4A9
  3
REFRACTIONTILE
360
4AB
  3
SPECULARTILE
360
4A8
  0
DICTIONARY
  5
7D1
330
587
100
AcDbDictionary
280
     1
281
     1
  3
ACAD_XREC_ROUNDTRIP
360
7D2
  0
DICTIONARY
  5
53F
330
33
100
AcDbDictionary
280
     1
281
     1
  3
ACAD_ROUNDTRIP_2008_TABLESTYLE_CELLSTYLEMAP
360
796
  3
ACAD_XREC_ROUNDTRIP
360
79D
  0
DICTIONARY
  5
7AB
330
4B2
100
AcDbDictionary
280
     1
281
     1
  3
ACAD_XREC_ROUNDTRIP
360
7AC
  0
DICTIONARY
  5
7A9
330
4B1
100
AcDbDictionary
280
     1
281
     1
  3
ACAD_XREC_ROUNDTRIP
360
7AA
  0
DICTIONARY
  5
7B7
330
4B8
100
AcDbDictionary
280
     1
281
     1
  3
ACAD_XREC_ROUNDTRIP
360
7B8
  0
DICTIONARY
  5
7BF
330
4BC
100
AcDbDictionary
280
     1
281
     1
  3
ACAD_XREC_ROUNDTRIP
360
7C0
  0
DICTIONARY
  5
7B1
330
4B5
100
AcDbDictionary
280
     1
281
     1
  3
ACAD_XREC_ROUNDTRIP
360
7B2
  0
DICTIONARY
  5
7B5
330
4B7
100
AcDbDictionary
280
     1
281
     1
  3
ACAD_XREC_ROUNDTRIP
360
7B6
  0
DICTIONARY
  5
7CF
330
4C4
100
AcDbDictionary
280
     1
281
     1
  3
ACAD_XREC_ROUNDTRIP
360
7D0
  0
DICTIONARY
  5
7BD
330
4BB
100
AcDbDictionary
280
     1
281
     1
  3
ACAD_XREC_ROUNDTRIP
360
7BE
  0
DICTIONARY
  5
7A1
330
4AD
100
AcDbDictionary
280
     1
281
     1
  3
ACAD_XREC_ROUNDTRIP
360
7A2
  0
DICTIONARY
  5
7A3
330
4AE
100
AcDbDictionary
280
     1
281
     1
  3
ACAD_XREC_ROUNDTRIP
360
7A4
  0
DICTIONARY
  5
7A5
330
4AF
100
AcDbDictionary
280
     1
281
     1
  3
ACAD_XREC_ROUNDTRIP
360
7A6
  0
DICTIONARY
  5
7A7
330
4B0
100
AcDbDictionary
280
     1
281
     1
  3
ACAD_XREC_ROUNDTRIP
360
7A8
  0
DICTIONARY
  5
7AF
330
4B4
100
AcDbDictionary
280
     1
281
     1
  3
ACAD_XREC_ROUNDTRIP
360
7B0
  0
DICTIONARY
  5
7CB
330
4C2
100
AcDbDictionary
280
     1
281
     1
  3
ACAD_XREC_ROUNDTRIP
360
7CC
  0
DICTIONARY
  5
7BB
330
4BA
100
AcDbDictionary
280
     1
281
     1
  3
ACAD_XREC_ROUNDTRIP
360
7BC
  0
DICTIONARY
  5
7CD
330
4C3
100
AcDbDictionary
280
     1
281
     1
  3
ACAD_XREC_ROUNDTRIP
360
7CE
  0
DICTIONARY
  5
7B3
330
4B6
100
AcDbDictionary
280
     1
281
     1
  3
ACAD_XREC_ROUNDTRIP
360
7B4
  0
DICTIONARY
  5
7C9
330
4C1
100
AcDbDictionary
280
     1
281
     1
  3
ACAD_XREC_ROUNDTRIP
360
7CA
  0
DICTIONARY
  5
7C7
330
4C0
100
AcDbDictionary
280
     1
281
     1
  3
ACAD_XREC_ROUNDTRIP
360
7C8
  0
DICTIONARY
  5
7C1
330
4BD
100
AcDbDictionary
280
     1
281
     1
  3
ACAD_XREC_ROUNDTRIP
360
7C2
  0
DICTIONARY
  5
7C3
330
4BE
100
AcDbDictionary
280
     1
281
     1
  3
ACAD_XREC_ROUNDTRIP
360
7C4
  0
DICTIONARY
  5
7B9
330
4B9
100
AcDbDictionary
280
     1
281
     1
  3
ACAD_XREC_ROUNDTRIP
360
7BA
  0
DICTIONARY
  5
7AD
330
4B3
100
AcDbDictionary
280
     1
281
     1
  3
ACAD_XREC_ROUNDTRIP
360
7AE
  0
DICTIONARY
  5
7C5
330
4BF
100
AcDbDictionary
280
     1
281
     1
  3
ACAD_XREC_ROUNDTRIP
360
7C6
  0
XRECORD
  5
7D4
102
{ACAD_REACTORS
330
7D3
102
}
330
7D3
100
AcDbXrecord
280
     1
102
DISPLAYNAME
  1
Imperial24
102
FLAGS
 90
        0
  0
XRECORD
  5
79A
102
{ACAD_REACTORS
330
799
102
}
330
799
100
AcDbXrecord
280
     1
102
SHADEPLOT
 70
     0
102
SHADEPLOTRESLEVEL
 70
     2
102
SHADEPLOTCUSTOMDPI
 70
   300
  0
XRECORD
  5
79C
102
{ACAD_REACTORS
330
79B
102
}
330
79B
100
AcDbXrecord
280
     1
102
SHADEPLOT
 70
     0
102
SHADEPLOTRESLEVEL
 70
     2
102
SHADEPLOTCUSTOMDPI
 70
   300
  0
XRECORD
  5
79F
102
{ACAD_REACTORS
330
49D
102
}
330
49D
100
AcDbXrecord
280
     1
102
MATERIAL
148
0.0
149
0.0
149
0.0
 93
        0
 94
      127
282
     0
 72
     0
 77
     0
171
     0
175
     0
179
     0
273
     0
  0
XRECORD
  5
49F
102
{ACAD_REACTORS
330
49D
102
}
330
49D
100
AcDbXrecord
280
     1
270
     1
271
     1
  0
XRECORD
  5
49E
102
{ACAD_REACTORS
330
49D
102
}
330
49D
100
AcDbXrecord
280
     1
270
     1
271
     1
  0
XRECORD
  5
4A2
102
{ACAD_REACTORS
330
49D
102
}
330
49D
100
AcDbXrecord
280
     1
270
     1
271
     1
  0
XRECORD
  5
4A1
102
{ACAD_REACTORS
330
49D
102
}
330
49D
100
AcDbXrecord
280
     1
270
     1
271
     1
  0
XRECORD
  5
4A3
102
{ACAD_REACTORS
330
49D
102
}
330
49D
100
AcDbXrecord
280
     1
270
     1
271
     1
  0
XRECORD
  5
4A0
102
{ACAD_REACTORS
330
49D
102
}
330
49D
100
AcDbXrecord
280
     1
270
     1
271
     1
  0
XRECORD
  5
79E
102
{ACAD_REACTORS
330
495
102
}
330
495
100
AcDbXrecord
280
     1
102
MATERIAL
148
0.0
149
0.0
149
0.0
 93
        0
 94
      127
282
     0
 72
     0
 77
     0
171
     0
175
     0
179
     0
273
     0
  0
XRECORD
  5
497
102
{ACAD_REACTORS
330
495
102
}
330
495
100
AcDbXrecord
280
     1
270
     1
271
     1
  0
XRECORD
  5
496
102
{ACAD_REACTORS
330
495
102
}
330
495
100
AcDbXrecord
280
     1
270
     1
271
     1
  0
XRECORD
  5
49A
102
{ACAD_REACTORS
330
495
102
}
330
495
100
AcDbXrecord
280
     1
270
     1
271
     1
  0
XRECORD
  5
499
102
{ACAD_REACTORS
330
495
102
}
330
495
100
AcDbXrecord
280
     1
270
     1
271
     1
  0
XRECORD
  5
49B
102
{ACAD_REACTORS
330
495
102
}
330
495
100
AcDbXrecord
280
     1
270
     1
271
     1
  0
XRECORD
  5
498
102
{ACAD_REACTORS
330
495
102
}
330
495
100
AcDbXrecord
280
     1
270
     1
271
     1
  0
XRECORD
  5
7A0
102
{ACAD_REACTORS
330
4A5
102
}
330
4A5
100
AcDbXrecord
280
     1
102
MATERIAL
148
0.0
149
0.0
149
0.0
 93
        0
 94
      127
282
     0
 72
     0
 77
     0
171
     0
175
     0
179
     0
273
     0
  0
XRECORD
  5
4A7
102
{ACAD_REACTORS
330
4A5
102
}
330
4A5
100
AcDbXrecord
280
     1
270
     1
271
     1
  0
XRECORD
  5
4A6
102
{ACAD_REACTORS
330
4A5
102
}
330
4A5
100
AcDbXrecord
280
     1
270
     1
271
     1
  0
XRECORD
  5
4AA
102
{ACAD_REACTORS
330
4A5
102
}
330
4A5
100
AcDbXrecord
280
     1
270
     1
271
     1
  0
XRECORD
  5
4A9
102
{ACAD_REACTORS
330
4A5
102
}
330
4A5
100
AcDbXrecord
280
     1
270
     1
271
     1
  0
XRECORD
  5
4AB
102
{ACAD_REACTORS
330
4A5
102
}
330
4A5
100
AcDbXrecord
280
     1
270
     1
271
     1
  0
XRECORD
  5
4A8
102
{ACAD_REACTORS
330
4A5
102
}
330
4A5
100
AcDbXrecord
280
     1
270
     1
271
     1
  0
XRECORD
  5
7D2
102
{ACAD_REACTORS
330
7D1
102
}
330
7D1
100
AcDbXrecord
280
     1
102
DISPLAYNAME
  1
Imperial24
102
FLAGS
 90
        0
  0
CELLSTYLEMAP
  5
796
102
{ACAD_REACTORS
330
53F
102
}
330
53F
100
AcDbCellStyleMap
 90
        3
300
CELLSTYLE
  1
TABLEFORMAT_BEGIN
 90
        5
170
     1
 91
        0
 92
    32768
 62
   257
 93
        1
300
CONTENTFORMAT
  1
CONTENTFORMAT_BEGIN
 90
        0
 91
        0
 92
        4
 93
        0
300

 40
0.0
140
1.0
 94
        5
 62
     0
340
15
144
0.25
309
CONTENTFORMAT_END
171
     0
 94
        6
 95
        1
302
GRIDFORMAT
  1
GRIDFORMAT_BEGIN
 90
        0
 91
        1
 62
     0
 92
       -2
340
0
 93
        0
 40
0.045
309
GRIDFORMAT_END
 95
        2
302
GRIDFORMAT
  1
GRIDFORMAT_BEGIN
 90
        0
 91
        1
 62
     0
 92
       -2
340
0
 93
        0
 40
0.045
309
GRIDFORMAT_END
 95
        4
302
GRIDFORMAT
  1
GRIDFORMAT_BEGIN
 90
        0
 91
        1
 62
     0
 92
       -2
340
0
 93
        0
 40
0.045
309
GRIDFORMAT_END
 95
        8
302
GRIDFORMAT
  1
GRIDFORMAT_BEGIN
 90
        0
 91
        1
 62
     0
 92
       -2
340
0
 93
        0
 40
0.045
309
GRIDFORMAT_END
 95
       16
302
GRIDFORMAT
  1
GRIDFORMAT_BEGIN
 90
        0
 91
        1
 62
     0
 92
       -2
340
0
 93
        0
 40
0.045
309
GRIDFORMAT_END
 95
       32
302
GRIDFORMAT
  1
GRIDFORMAT_BEGIN
 90
        0
 91
        1
 62
     0
 92
       -2
340
0
 93
        0
 40
0.045
309
GRIDFORMAT_END
309
TABLEFORMAT_END
  1
CELLSTYLE_BEGIN
 90
        1
 91
        1
300
_TITLE
309
CELLSTYLE_END
300
CELLSTYLE
  1
TABLEFORMAT_BEGIN
 90
        5
170
     1
 91
        0
 92
        0
 62
   257
 93
        1
300
CONTENTFORMAT
  1
CONTENTFORMAT_BEGIN
 90
        0
 91
        0
 92
        4
 93
        0
300

 40
0.0
140
1.0
 94
        5
 62
     0
340
15
144
0.18
309
CONTENTFORMAT_END
171
     0
 94
        6
 95
        1
302
GRIDFORMAT
  1
GRIDFORMAT_BEGIN
 90
        0
 91
        1
 62
     0
 92
       -2
340
0
 93
        0
 40
0.045
309
GRIDFORMAT_END
 95
        2
302
GRIDFORMAT
  1
GRIDFORMAT_BEGIN
 90
        0
 91
        1
 62
     0
 92
       -2
340
0
 93
        0
 40
0.045
309
GRIDFORMAT_END
 95
        4
302
GRIDFORMAT
  1
GRIDFORMAT_BEGIN
 90
        0
 91
        1
 62
     0
 92
       -2
340
0
 93
        0
 40
0.045
309
GRIDFORMAT_END
 95
        8
302
GRIDFORMAT
  1
GRIDFORMAT_BEGIN
 90
        0
 91
        1
 62
     0
 92
       -2
340
0
 93
        0
 40
0.045
309
GRIDFORMAT_END
 95
       16
302
GRIDFORMAT
  1
GRIDFORMAT_BEGIN
 90
        0
 91
        1
 62
     0
 92
       -2
340
0
 93
        0
 40
0.045
309
GRIDFORMAT_END
 95
       32
302
GRIDFORMAT
  1
GRIDFORMAT_BEGIN
 90
        0
 91
        1
 62
     0
 92
       -2
340
0
 93
        0
 40
0.045
309
GRIDFORMAT_END
309
TABLEFORMAT_END
  1
CELLSTYLE_BEGIN
 90
        2
 91
        1
300
_HEADER
309
CELLSTYLE_END
300
CELLSTYLE
  1
TABLEFORMAT_BEGIN
 90
        5
170
     1
 91
        0
 92
        0
 62
   257
 93
        1
300
CONTENTFORMAT
  1
CONTENTFORMAT_BEGIN
 90
        0
 91
        0
 92
        4
 93
        0
300

 40
0.0
140
1.0
 94
        2
 62
     0
340
15
144
0.18
309
CONTENTFORMAT_END
171
     0
 94
        6
 95
        1
302
GRIDFORMAT
  1
GRIDFORMAT_BEGIN
 90
        0
 91
        1
 62
     0
 92
       -2
340
0
 93
        0
 40
0.045
309
GRIDFORMAT_END
 95
        2
302
GRIDFORMAT
  1
GRIDFORMAT_BEGIN
 90
        0
 91
        1
 62
     0
 92
       -2
340
0
 93
        0
 40
0.045
309
GRIDFORMAT_END
 95
        4
302
GRIDFORMAT
  1
GRIDFORMAT_BEGIN
 90
        0
 91
        1
 62
     0
 92
       -2
340
0
 93
        0
 40
0.045
309
GRIDFORMAT_END
 95
        8
302
GRIDFORMAT
  1
GRIDFORMAT_BEGIN
 90
        0
 91
        1
 62
     0
 92
       -2
340
0
 93
        0
 40
0.045
309
GRIDFORMAT_END
 95
       16
302
GRIDFORMAT
  1
GRIDFORMAT_BEGIN
 90
        0
 91
        1
 62
     0
 92
       -2
340
0
 93
        0
 40
0.045
309
GRIDFORMAT_END
 95
       32
302
GRIDFORMAT
  1
GRIDFORMAT_BEGIN
 90
        0
 91
        1
 62
     0
 92
       -2
340
0
 93
        0
 40
0.045
309
GRIDFORMAT_END
309
TABLEFORMAT_END
  1
CELLSTYLE_BEGIN
 90
        3
 91
        2
300
_DATA
309
CELLSTYLE_END
  0
XRECORD
  5
79D
102
{ACAD_REACTORS
330
53F
102
}
330
53F
100
AcDbXrecord
280
     1
102
ACAD_ROUNDTRIP_PRE2007_TABLESTYLE
 90
        4
 91
        0
  1

 92
        4
 93
        0
  2

 94
        4
 95
        0
  3

  0
XRECORD
  5
7AC
102
{ACAD_REACTORS
330
7AB
102
}
330
7AB
100
AcDbXrecord
280
     1
102
RTVSPost2010Prop28
280
     1
102
RTVSPost2010PropOp28
 70
     1
102
RTVSPost2010Prop29
280
     1
102
RTVSPost2010PropOp29
 70
     1
102
RTVSPost2010Prop30
280
     0
102
RTVSPost2010PropOp30
 70
     1
102
RTVSPost2010Prop31
280
     0
102
RTVSPost2010PropOp31
 70
     1
102
RTVSPost2010Prop32
280
     0
102
RTVSPost2010PropOp32
 70
     1
102
RTVSPost2010Prop33
280
     0
102
RTVSPost2010PropOp33
 70
     1
102
RTVSPost2010Prop34
280
     0
102
RTVSPost2010PropOp34
 70
     1
102
RTVSPost2010Prop35
280
     0
102
RTVSPost2010PropOp35
 70
     1
102
RTVSPost2010Prop36
280
     0
102
RTVSPost2010PropOp36
 70
     1
102
RTVSPost2010Prop37
 90
       50
102
RTVSPost2010PropOp37
 70
     1
102
RTVSPost2010Prop38
140
0.0
102
RTVSPost2010PropOp38
 70
     1
102
RTVSPost2010Prop39
140
1.0
102
RTVSPost2010PropOp39
 70
     1
102
RTVSPost2010Prop40
 90
        0
102
RTVSPost2010PropOp40
 70
     1
102
RTVSPost2010Prop41ColorIndex
 90
       18
102
RTVSPost2010Prop41ColorRGB
 90
        0
102
RTVSPost2010PropOp41
 70
     1
102
RTVSPost2010Prop42
 90
       50
102
RTVSPost2010PropOp42
 70
     1
102
RTVSPost2010Prop43
 90
        3
102
RTVSPost2010PropOp43
 70
     1
102
RTVSPost2010Prop44ColorIndex
 90
        5
102
RTVSPost2010Prop44ColorRGB
 90
      255
102
RTVSPost2010PropOp44
 70
     1
102
RTVSPost2010Prop45
280
     0
102
RTVSPost2010PropOp45
 70
     1
102
RTVSPost2010Prop46
 90
       50
102
RTVSPost2010PropOp46
 70
     1
102
RTVSPost2010Prop47
 90
       50
102
RTVSPost2010PropOp47
 70
     1
102
RTVSPost2010Prop48
 90
       50
102
RTVSPost2010PropOp48
 70
     1
102
RTVSPost2010Prop49
280
     0
102
RTVSPost2010PropOp49
 70
     1
102
RTVSPost2010Prop50
 90
       50
102
RTVSPost2010PropOp50
 70
     1
102
RTVSPost2010Prop51ColorIndex
 90
      256
102
RTVSPost2010Prop51ColorRGB
 90
-16777216
102
RTVSPost2010PropOp51
 70
     0
102
RTVSPost2010Prop52
140
1.0
102
RTVSPost2010PropOp52
 70
     0
102
RTVSPost2010Prop53
 90
        2
102
RTVSPost2010PropOp53
 70
     1
102
RTVSPost2010Prop54
  1
strokes_ogs.tif
102
RTVSPost2010PropOp54
 70
     1
102
RTVSPost2010Prop55
280
     0
102
RTVSPost2010PropOp55
 70
     1
102
RTVSPost2010Prop56
140
1.0
102
RTVSPost2010PropOp56
 70
     1
102
RTVSPost2010Prop57
140
1.0
102
RTVSPost2010PropOp57
 70
     1
102
RTVSPropertyOp0
 70
     1
102
RTVSPropertyOp1
 70
     1
102
RTVSPropertyOp2
 70
     1
102
RTVSPropertyOp3
 70
     1
102
RTVSPropertyOp4
 70
     1
102
RTVSPropertyOp5
 70
     1
102
RTVSPropertyOp6
 70
     1
102
RTVSPropertyOp7
 70
     1
102
RTVSPropertyOp8
 70
     1
102
RTVSPropertyOp9
 70
     1
102
RTVSPropertyOp10
 70
     1
102
RTVSPropertyOp11
 70
     1
102
RTVSPropertyOp12
 70
     1
102
RTVSPropertyOp13
 70
     1
102
RTVSPropertyOp14
 70
     1
102
RTVSPropertyOp15
 70
     1
102
RTVSPropertyOp16
 70
     1
102
RTVSPropertyOp17
 70
     1
102
RTVSPropertyOp18
 70
     1
102
RTVSPropertyOp19
 70
     1
102
RTVSPropertyOp20
 70
     1
102
RTVSPropertyOp21
 70
     1
102
RTVSPropertyOp22
 70
     1
102
RTVSPropertyOp23
 70
     1
102
RTVSPropertyOp24
 70
     1
102
RTVSPropertyOp25
 70
     1
102
RTVSPropertyOp26
 70
     1
102
RTVSPropertyOp27
 70
     1
102
RTVSPropertyOp28
 70
     1
102
RTVSPropertyOp29
 70
     1
102
RTVSPropertyOp30
 70
     1
102
RTVSPropertyOp31
 70
     1
102
RTVSPropertyOp32
 70
     1
102
RTVSPropertyOp33
 70
     1
102
RTVSPropertyOp34
 70
     1
102
RTVSPropertyOp35
 70
     1
102
RTVSPropertyOp36
 70
     1
102
RTVSPropertyOp37
 70
     1
102
RTVSPropertyOp38
 70
     1
102
RTVSPropertyOp39
 70
     1
102
RTVSPropertyOp40
 70
     1
102
RTVSPropertyOp41
 70
     1
102
RTVSPropertyOp42
 70
     1
102
RTVSPropertyOp43
 70
     1
102
RTVSPropertyOp44
 70
     1
102
RTVSPropertyOp45
 70
     1
102
RTVSPropertyOp46
 70
     1
102
RTVSPropertyOp47
 70
     1
102
RTVSPropertyOp48
 70
     1
102
RTVSPropertyOp49
 70
     1
102
RTVSPropertyOp50
 70
     1
102
RTVSPropertyOp51
 70
     0
102
RTVSPropertyOp52
 70
     0
102
RTVSPropertyOp53
 70
     1
102
RTVSPropertyOp54
 70
     1
102
RTVSPropertyOp55
 70
     1
102
RTVSPropertyOp56
 70
     1
102
RTVSPropertyOp57
 70
     1
102
RTVSPropertyOp58
 70
     1
102
RTVSPropertyOp59
 70
     1
102
RTVSPropertyOp60
 70
     1
102
RTVSPropertyOp61
 70
     1
102
RTVSPropertyOp62
 70
     1
  0
XRECORD
  5
7AA
102
{ACAD_REACTORS
330
7A9
102
}
330
7A9
100
AcDbXrecord
280
     1
102
RTVSPost2010Prop28
280
     0
102
RTVSPost2010PropOp28
 70
     1
102
RTVSPost2010Prop29
280
     1
102
RTVSPost2010PropOp29
 70
     1
102
RTVSPost2010Prop30
280
     1
102
RTVSPost2010PropOp30
 70
     1
102
RTVSPost2010Prop31
280
     0
102
RTVSPost2010PropOp31
 70
     1
102
RTVSPost2010Prop32
280
     0
102
RTVSPost2010PropOp32
 70
     1
102
RTVSPost2010Prop33
280
     0
102
RTVSPost2010PropOp33
 70
     1
102
RTVSPost2010Prop34
280
     0
102
RTVSPost2010PropOp34
 70
     1
102
RTVSPost2010Prop35
280
     0
102
RTVSPost2010PropOp35
 70
     1
102
RTVSPost2010Prop36
280
     0
102
RTVSPost2010PropOp36
 70
     1
102
RTVSPost2010Prop37
 90
       50
102
RTVSPost2010PropOp37
 70
     1
102
RTVSPost2010Prop38
140
0.0
102
RTVSPost2010PropOp38
 70
     1
102
RTVSPost2010Prop39
140
1.0
102
RTVSPost2010PropOp39
 70
     1
102
RTVSPost2010Prop40
 90
        0
102
RTVSPost2010PropOp40
 70
     1
102
RTVSPost2010Prop41ColorIndex
 90
       18
102
RTVSPost2010Prop41ColorRGB
 90
        0
102
RTVSPost2010PropOp41
 70
     1
102
RTVSPost2010Prop42
 90
       50
102
RTVSPost2010PropOp42
 70
     1
102
RTVSPost2010Prop43
 90
        3
102
RTVSPost2010PropOp43
 70
     1
102
RTVSPost2010Prop44ColorIndex
 90
        5
102
RTVSPost2010Prop44ColorRGB
 90
      255
102
RTVSPost2010PropOp44
 70
     1
102
RTVSPost2010Prop45
280
     0
102
RTVSPost2010PropOp45
 70
     1
102
RTVSPost2010Prop46
 90
       50
102
RTVSPost2010PropOp46
 70
     1
102
RTVSPost2010Prop47
 90
       50
102
RTVSPost2010PropOp47
 70
     1
102
RTVSPost2010Prop48
 90
       50
102
RTVSPost2010PropOp48
 70
     1
102
RTVSPost2010Prop49
280
     0
102
RTVSPost2010PropOp49
 70
     1
102
RTVSPost2010Prop50
 90
       50
102
RTVSPost2010PropOp50
 70
     1
102
RTVSPost2010Prop51ColorIndex
 90
      256
102
RTVSPost2010Prop51ColorRGB
 90
-16777216
102
RTVSPost2010PropOp51
 70
     0
102
RTVSPost2010Prop52
140
1.0
102
RTVSPost2010PropOp52
 70
     0
102
RTVSPost2010Prop53
 90
        2
102
RTVSPost2010PropOp53
 70
     1
102
RTVSPost2010Prop54
  1
strokes_ogs.tif
102
RTVSPost2010PropOp54
 70
     1
102
RTVSPost2010Prop55
280
     0
102
RTVSPost2010PropOp55
 70
     1
102
RTVSPost2010Prop56
140
1.0
102
RTVSPost2010PropOp56
 70
     1
102
RTVSPost2010Prop57
140
1.0
102
RTVSPost2010PropOp57
 70
     1
102
RTVSPropertyOp0
 70
     1
102
RTVSPropertyOp1
 70
     1
102
RTVSPropertyOp2
 70
     1
102
RTVSPropertyOp3
 70
     1
102
RTVSPropertyOp4
 70
     1
102
RTVSPropertyOp5
 70
     1
102
RTVSPropertyOp6
 70
     1
102
RTVSPropertyOp7
 70
     1
102
RTVSPropertyOp8
 70
     1
102
RTVSPropertyOp9
 70
     1
102
RTVSPropertyOp10
 70
     1
102
RTVSPropertyOp11
 70
     1
102
RTVSPropertyOp12
 70
     1
102
RTVSPropertyOp13
 70
     1
102
RTVSPropertyOp14
 70
     1
102
RTVSPropertyOp15
 70
     1
102
RTVSPropertyOp16
 70
     1
102
RTVSPropertyOp17
 70
     1
102
RTVSPropertyOp18
 70
     1
102
RTVSPropertyOp19
 70
     1
102
RTVSPropertyOp20
 70
     1
102
RTVSPropertyOp21
 70
     1
102
RTVSPropertyOp22
 70
     1
102
RTVSPropertyOp23
 70
     1
102
RTVSPropertyOp24
 70
     1
102
RTVSPropertyOp25
 70
     1
102
RTVSPropertyOp26
 70
     1
102
RTVSPropertyOp27
 70
     1
102
RTVSPropertyOp28
 70
     1
102
RTVSPropertyOp29
 70
     1
102
RTVSPropertyOp30
 70
     1
102
RTVSPropertyOp31
 70
     1
102
RTVSPropertyOp32
 70
     1
102
RTVSPropertyOp33
 70
     1
102
RTVSPropertyOp34
 70
     1
102
RTVSPropertyOp35
 70
     1
102
RTVSPropertyOp36
 70
     1
102
RTVSPropertyOp37
 70
     1
102
RTVSPropertyOp38
 70
     1
102
RTVSPropertyOp39
 70
     1
102
RTVSPropertyOp40
 70
     1
102
RTVSPropertyOp41
 70
     1
102
RTVSPropertyOp42
 70
     1
102
RTVSPropertyOp43
 70
     1
102
RTVSPropertyOp44
 70
     1
102
RTVSPropertyOp45
 70
     1
102
RTVSPropertyOp46
 70
     1
102
RTVSPropertyOp47
 70
     1
102
RTVSPropertyOp48
 70
     1
102
RTVSPropertyOp49
 70
     1
102
RTVSPropertyOp50
 70
     1
102
RTVSPropertyOp51
 70
     0
102
RTVSPropertyOp52
 70
     0
102
RTVSPropertyOp53
 70
     1
102
RTVSPropertyOp54
 70
     1
102
RTVSPropertyOp55
 70
     1
102
RTVSPropertyOp56
 70
     1
102
RTVSPropertyOp57
 70
     1
102
RTVSPropertyOp58
 70
     1
102
RTVSPropertyOp59
 70
     1
102
RTVSPropertyOp60
 70
     1
102
RTVSPropertyOp61
 70
     1
102
RTVSPropertyOp62
 70
     1
  0
XRECORD
  5
7B8
102
{ACAD_REACTORS
330
7B7
102
}
330
7B7
100
AcDbXrecord
280
     1
102
RTVSPost2010Prop28
280
     0
102
RTVSPost2010PropOp28
 70
     1
102
RTVSPost2010Prop29
280
     1
102
RTVSPost2010PropOp29
 70
     1
102
RTVSPost2010Prop30
280
     1
102
RTVSPost2010PropOp30
 70
     1
102
RTVSPost2010Prop31
280
     0
102
RTVSPost2010PropOp31
 70
     1
102
RTVSPost2010Prop32
280
     0
102
RTVSPost2010PropOp32
 70
     1
102
RTVSPost2010Prop33
280
     0
102
RTVSPost2010PropOp33
 70
     1
102
RTVSPost2010Prop34
280
     0
102
RTVSPost2010PropOp34
 70
     1
102
RTVSPost2010Prop35
280
     0
102
RTVSPost2010PropOp35
 70
     1
102
RTVSPost2010Prop36
280
     0
102
RTVSPost2010PropOp36
 70
     1
102
RTVSPost2010Prop37
 90
       50
102
RTVSPost2010PropOp37
 70
     1
102
RTVSPost2010Prop38
140
0.0
102
RTVSPost2010PropOp38
 70
     1
102
RTVSPost2010Prop39
140
1.0
102
RTVSPost2010PropOp39
 70
     1
102
RTVSPost2010Prop40
 90
        0
102
RTVSPost2010PropOp40
 70
     1
102
RTVSPost2010Prop41ColorIndex
 90
       18
102
RTVSPost2010Prop41ColorRGB
 90
        0
102
RTVSPost2010PropOp41
 70
     1
102
RTVSPost2010Prop42
 90
       50
102
RTVSPost2010PropOp42
 70
     1
102
RTVSPost2010Prop43
 90
        3
102
RTVSPost2010PropOp43
 70
     1
102
RTVSPost2010Prop44ColorIndex
 90
        5
102
RTVSPost2010Prop44ColorRGB
 90
      255
102
RTVSPost2010PropOp44
 70
     1
102
RTVSPost2010Prop45
280
     0
102
RTVSPost2010PropOp45
 70
     1
102
RTVSPost2010Prop46
 90
       50
102
RTVSPost2010PropOp46
 70
     1
102
RTVSPost2010Prop47
 90
       50
102
RTVSPost2010PropOp47
 70
     1
102
RTVSPost2010Prop48
 90
       50
102
RTVSPost2010PropOp48
 70
     1
102
RTVSPost2010Prop49
280
     0
102
RTVSPost2010PropOp49
 70
     1
102
RTVSPost2010Prop50
 90
       50
102
RTVSPost2010PropOp50
 70
     1
102
RTVSPost2010Prop51ColorIndex
 90
      256
102
RTVSPost2010Prop51ColorRGB
 90
-16777216
102
RTVSPost2010PropOp51
 70
     0
102
RTVSPost2010Prop52
140
1.0
102
RTVSPost2010PropOp52
 70
     0
102
RTVSPost2010Prop53
 90
        2
102
RTVSPost2010PropOp53
 70
     1
102
RTVSPost2010Prop54
  1
strokes_ogs.tif
102
RTVSPost2010PropOp54
 70
     1
102
RTVSPost2010Prop55
280
     0
102
RTVSPost2010PropOp55
 70
     1
102
RTVSPost2010Prop56
140
1.0
102
RTVSPost2010PropOp56
 70
     1
102
RTVSPost2010Prop57
140
1.0
102
RTVSPost2010PropOp57
 70
     1
102
RTVSPropertyOp0
 70
     1
102
RTVSPropertyOp1
 70
     1
102
RTVSPropertyOp2
 70
     1
102
RTVSPropertyOp3
 70
     1
102
RTVSPropertyOp4
 70
     1
102
RTVSPropertyOp5
 70
     1
102
RTVSPropertyOp6
 70
     1
102
RTVSPropertyOp7
 70
     1
102
RTVSPropertyOp8
 70
     1
102
RTVSPropertyOp9
 70
     1
102
RTVSPropertyOp10
 70
     1
102
RTVSPropertyOp11
 70
     1
102
RTVSPropertyOp12
 70
     1
102
RTVSPropertyOp13
 70
     1
102
RTVSPropertyOp14
 70
     1
102
RTVSPropertyOp15
 70
     1
102
RTVSPropertyOp16
 70
     1
102
RTVSPropertyOp17
 70
     1
102
RTVSPropertyOp18
 70
     1
102
RTVSPropertyOp19
 70
     1
102
RTVSPropertyOp20
 70
     1
102
RTVSPropertyOp21
 70
     1
102
RTVSPropertyOp22
 70
     1
102
RTVSPropertyOp23
 70
     1
102
RTVSPropertyOp24
 70
     1
102
RTVSPropertyOp25
 70
     1
102
RTVSPropertyOp26
 70
     1
102
RTVSPropertyOp27
 70
     1
102
RTVSPropertyOp28
 70
     1
102
RTVSPropertyOp29
 70
     1
102
RTVSPropertyOp30
 70
     1
102
RTVSPropertyOp31
 70
     1
102
RTVSPropertyOp32
 70
     1
102
RTVSPropertyOp33
 70
     1
102
RTVSPropertyOp34
 70
     1
102
RTVSPropertyOp35
 70
     1
102
RTVSPropertyOp36
 70
     1
102
RTVSPropertyOp37
 70
     1
102
RTVSPropertyOp38
 70
     1
102
RTVSPropertyOp39
 70
     1
102
RTVSPropertyOp40
 70
     1
102
RTVSPropertyOp41
 70
     1
102
RTVSPropertyOp42
 70
     1
102
RTVSPropertyOp43
 70
     1
102
RTVSPropertyOp44
 70
     1
102
RTVSPropertyOp45
 70
     1
102
RTVSPropertyOp46
 70
     1
102
RTVSPropertyOp47
 70
     1
102
RTVSPropertyOp48
 70
     1
102
RTVSPropertyOp49
 70
     1
102
RTVSPropertyOp50
 70
     1
102
RTVSPropertyOp51
 70
     0
102
RTVSPropertyOp52
 70
     0
102
RTVSPropertyOp53
 70
     1
102
RTVSPropertyOp54
 70
     1
102
RTVSPropertyOp55
 70
     1
102
RTVSPropertyOp56
 70
     1
102
RTVSPropertyOp57
 70
     1
102
RTVSPropertyOp58
 70
     1
102
RTVSPropertyOp59
 70
     1
102
RTVSPropertyOp60
 70
     1
102
RTVSPropertyOp61
 70
     1
102
RTVSPropertyOp62
 70
     1
  0
XRECORD
  5
7C0
102
{ACAD_REACTORS
330
7BF
102
}
330
7BF
100
AcDbXrecord
280
     1
102
RTVSPost2010Prop28
280
     0
102
RTVSPost2010PropOp28
 70
     1
102
RTVSPost2010Prop29
280
     1
102
RTVSPost2010PropOp29
 70
     1
102
RTVSPost2010Prop30
280
     1
102
RTVSPost2010PropOp30
 70
     1
102
RTVSPost2010Prop31
280
     0
102
RTVSPost2010PropOp31
 70
     1
102
RTVSPost2010Prop32
280
     0
102
RTVSPost2010PropOp32
 70
     1
102
RTVSPost2010Prop33
280
     0
102
RTVSPost2010PropOp33
 70
     1
102
RTVSPost2010Prop34
280
     0
102
RTVSPost2010PropOp34
 70
     1
102
RTVSPost2010Prop35
280
     0
102
RTVSPost2010PropOp35
 70
     1
102
RTVSPost2010Prop36
280
     0
102
RTVSPost2010PropOp36
 70
     1
102
RTVSPost2010Prop37
 90
       50
102
RTVSPost2010PropOp37
 70
     1
102
RTVSPost2010Prop38
140
0.0
102
RTVSPost2010PropOp38
 70
     1
102
RTVSPost2010Prop39
140
1.0
102
RTVSPost2010PropOp39
 70
     1
102
RTVSPost2010Prop40
 90
        0
102
RTVSPost2010PropOp40
 70
     1
102
RTVSPost2010Prop41ColorIndex
 90
       18
102
RTVSPost2010Prop41ColorRGB
 90
        0
102
RTVSPost2010PropOp41
 70
     1
102
RTVSPost2010Prop42
 90
       50
102
RTVSPost2010PropOp42
 70
     1
102
RTVSPost2010Prop43
 90
        3
102
RTVSPost2010PropOp43
 70
     1
102
RTVSPost2010Prop44ColorIndex
 90
        5
102
RTVSPost2010Prop44ColorRGB
 90
      255
102
RTVSPost2010PropOp44
 70
     1
102
RTVSPost2010Prop45
280
     0
102
RTVSPost2010PropOp45
 70
     1
102
RTVSPost2010Prop46
 90
       50
102
RTVSPost2010PropOp46
 70
     1
102
RTVSPost2010Prop47
 90
       50
102
RTVSPost2010PropOp47
 70
     1
102
RTVSPost2010Prop48
 90
       50
102
RTVSPost2010PropOp48
 70
     1
102
RTVSPost2010Prop49
280
     0
102
RTVSPost2010PropOp49
 70
     1
102
RTVSPost2010Prop50
 90
       50
102
RTVSPost2010PropOp50
 70
     1
102
RTVSPost2010Prop51ColorIndex
 90
      256
102
RTVSPost2010Prop51ColorRGB
 90
-16777216
102
RTVSPost2010PropOp51
 70
     0
102
RTVSPost2010Prop52
140
1.0
102
RTVSPost2010PropOp52
 70
     0
102
RTVSPost2010Prop53
 90
        2
102
RTVSPost2010PropOp53
 70
     1
102
RTVSPost2010Prop54
  1
strokes_ogs.tif
102
RTVSPost2010PropOp54
 70
     1
102
RTVSPost2010Prop55
280
     0
102
RTVSPost2010PropOp55
 70
     1
102
RTVSPost2010Prop56
140
1.0
102
RTVSPost2010PropOp56
 70
     1
102
RTVSPost2010Prop57
140
1.0
102
RTVSPost2010PropOp57
 70
     1
102
RTVSPropertyOp0
 70
     1
102
RTVSPropertyOp1
 70
     1
102
RTVSPropertyOp2
 70
     1
102
RTVSPropertyOp3
 70
     1
102
RTVSPropertyOp4
 70
     1
102
RTVSPropertyOp5
 70
     1
102
RTVSPropertyOp6
 70
     1
102
RTVSPropertyOp7
 70
     1
102
RTVSPropertyOp8
 70
     1
102
RTVSPropertyOp9
 70
     1
102
RTVSPropertyOp10
 70
     1
102
RTVSPropertyOp11
 70
     1
102
RTVSPropertyOp12
 70
     1
102
RTVSPropertyOp13
 70
     1
102
RTVSPropertyOp14
 70
     1
102
RTVSPropertyOp15
 70
     1
102
RTVSPropertyOp16
 70
     1
102
RTVSPropertyOp17
 70
     1
102
RTVSPropertyOp18
 70
     1
102
RTVSPropertyOp19
 70
     1
102
RTVSPropertyOp20
 70
     1
102
RTVSPropertyOp21
 70
     1
102
RTVSPropertyOp22
 70
     1
102
RTVSPropertyOp23
 70
     1
102
RTVSPropertyOp24
 70
     1
102
RTVSPropertyOp25
 70
     1
102
RTVSPropertyOp26
 70
     1
102
RTVSPropertyOp27
 70
     1
102
RTVSPropertyOp28
 70
     1
102
RTVSPropertyOp29
 70
     1
102
RTVSPropertyOp30
 70
     1
102
RTVSPropertyOp31
 70
     1
102
RTVSPropertyOp32
 70
     1
102
RTVSPropertyOp33
 70
     1
102
RTVSPropertyOp34
 70
     1
102
RTVSPropertyOp35
 70
     1
102
RTVSPropertyOp36
 70
     1
102
RTVSPropertyOp37
 70
     1
102
RTVSPropertyOp38
 70
     1
102
RTVSPropertyOp39
 70
     1
102
RTVSPropertyOp40
 70
     1
102
RTVSPropertyOp41
 70
     1
102
RTVSPropertyOp42
 70
     1
102
RTVSPropertyOp43
 70
     1
102
RTVSPropertyOp44
 70
     1
102
RTVSPropertyOp45
 70
     1
102
RTVSPropertyOp46
 70
     1
102
RTVSPropertyOp47
 70
     1
102
RTVSPropertyOp48
 70
     1
102
RTVSPropertyOp49
 70
     1
102
RTVSPropertyOp50
 70
     1
102
RTVSPropertyOp51
 70
     0
102
RTVSPropertyOp52
 70
     0
102
RTVSPropertyOp53
 70
     1
102
RTVSPropertyOp54
 70
     1
102
RTVSPropertyOp55
 70
     1
102
RTVSPropertyOp56
 70
     1
102
RTVSPropertyOp57
 70
     1
102
RTVSPropertyOp58
 70
     1
102
RTVSPropertyOp59
 70
     1
102
RTVSPropertyOp60
 70
     1
102
RTVSPropertyOp61
 70
     1
102
RTVSPropertyOp62
 70
     1
  0
XRECORD
  5
7B2
102
{ACAD_REACTORS
330
7B1
102
}
330
7B1
100
AcDbXrecord
280
     1
102
RTVSPost2010Prop28
280
     0
102
RTVSPost2010PropOp28
 70
     1
102
RTVSPost2010Prop29
280
     1
102
RTVSPost2010PropOp29
 70
     1
102
RTVSPost2010Prop30
280
     1
102
RTVSPost2010PropOp30
 70
     1
102
RTVSPost2010Prop31
280
     0
102
RTVSPost2010PropOp31
 70
     1
102
RTVSPost2010Prop32
280
     0
102
RTVSPost2010PropOp32
 70
     1
102
RTVSPost2010Prop33
280
     0
102
RTVSPost2010PropOp33
 70
     1
102
RTVSPost2010Prop34
280
     0
102
RTVSPost2010PropOp34
 70
     1
102
RTVSPost2010Prop35
280
     0
102
RTVSPost2010PropOp35
 70
     1
102
RTVSPost2010Prop36
280
     0
102
RTVSPost2010PropOp36
 70
     1
102
RTVSPost2010Prop37
 90
       50
102
RTVSPost2010PropOp37
 70
     1
102
RTVSPost2010Prop38
140
0.0
102
RTVSPost2010PropOp38
 70
     1
102
RTVSPost2010Prop39
140
1.0
102
RTVSPost2010PropOp39
 70
     1
102
RTVSPost2010Prop40
 90
        0
102
RTVSPost2010PropOp40
 70
     1
102
RTVSPost2010Prop41ColorIndex
 90
       18
102
RTVSPost2010Prop41ColorRGB
 90
        0
102
RTVSPost2010PropOp41
 70
     1
102
RTVSPost2010Prop42
 90
       50
102
RTVSPost2010PropOp42
 70
     1
102
RTVSPost2010Prop43
 90
        3
102
RTVSPost2010PropOp43
 70
     1
102
RTVSPost2010Prop44ColorIndex
 90
        5
102
RTVSPost2010Prop44ColorRGB
 90
      255
102
RTVSPost2010PropOp44
 70
     1
102
RTVSPost2010Prop45
280
     0
102
RTVSPost2010PropOp45
 70
     1
102
RTVSPost2010Prop46
 90
       50
102
RTVSPost2010PropOp46
 70
     1
102
RTVSPost2010Prop47
 90
       50
102
RTVSPost2010PropOp47
 70
     1
102
RTVSPost2010Prop48
 90
       50
102
RTVSPost2010PropOp48
 70
     1
102
RTVSPost2010Prop49
280
     0
102
RTVSPost2010PropOp49
 70
     1
102
RTVSPost2010Prop50
 90
       50
102
RTVSPost2010PropOp50
 70
     1
102
RTVSPost2010Prop51ColorIndex
 90
      256
102
RTVSPost2010Prop51ColorRGB
 90
-16777216
102
RTVSPost2010PropOp51
 70
     0
102
RTVSPost2010Prop52
140
1.0
102
RTVSPost2010PropOp52
 70
     0
102
RTVSPost2010Prop53
 90
        2
102
RTVSPost2010PropOp53
 70
     1
102
RTVSPost2010Prop54
  1
strokes_ogs.tif
102
RTVSPost2010PropOp54
 70
     1
102
RTVSPost2010Prop55
280
     0
102
RTVSPost2010PropOp55
 70
     1
102
RTVSPost2010Prop56
140
1.0
102
RTVSPost2010PropOp56
 70
     1
102
RTVSPost2010Prop57
140
1.0
102
RTVSPost2010PropOp57
 70
     1
102
RTVSPropertyOp0
 70
     1
102
RTVSPropertyOp1
 70
     1
102
RTVSPropertyOp2
 70
     1
102
RTVSPropertyOp3
 70
     1
102
RTVSPropertyOp4
 70
     1
102
RTVSPropertyOp5
 70
     1
102
RTVSPropertyOp6
 70
     1
102
RTVSPropertyOp7
 70
     1
102
RTVSPropertyOp8
 70
     1
102
RTVSPropertyOp9
 70
     1
102
RTVSPropertyOp10
 70
     1
102
RTVSPropertyOp11
 70
     1
102
RTVSPropertyOp12
 70
     1
102
RTVSPropertyOp13
 70
     1
102
RTVSPropertyOp14
 70
     1
102
RTVSPropertyOp15
 70
     1
102
RTVSPropertyOp16
 70
     1
102
RTVSPropertyOp17
 70
     1
102
RTVSPropertyOp18
 70
     1
102
RTVSPropertyOp19
 70
     1
102
RTVSPropertyOp20
 70
     1
102
RTVSPropertyOp21
 70
     1
102
RTVSPropertyOp22
 70
     1
102
RTVSPropertyOp23
 70
     1
102
RTVSPropertyOp24
 70
     1
102
RTVSPropertyOp25
 70
     1
102
RTVSPropertyOp26
 70
     1
102
RTVSPropertyOp27
 70
     1
102
RTVSPropertyOp28
 70
     1
102
RTVSPropertyOp29
 70
     1
102
RTVSPropertyOp30
 70
     1
102
RTVSPropertyOp31
 70
     1
102
RTVSPropertyOp32
 70
     1
102
RTVSPropertyOp33
 70
     1
102
RTVSPropertyOp34
 70
     1
102
RTVSPropertyOp35
 70
     1
102
RTVSPropertyOp36
 70
     1
102
RTVSPropertyOp37
 70
     1
102
RTVSPropertyOp38
 70
     1
102
RTVSPropertyOp39
 70
     1
102
RTVSPropertyOp40
 70
     1
102
RTVSPropertyOp41
 70
     1
102
RTVSPropertyOp42
 70
     1
102
RTVSPropertyOp43
 70
     1
102
RTVSPropertyOp44
 70
     1
102
RTVSPropertyOp45
 70
     1
102
RTVSPropertyOp46
 70
     1
102
RTVSPropertyOp47
 70
     1
102
RTVSPropertyOp48
 70
     1
102
RTVSPropertyOp49
 70
     1
102
RTVSPropertyOp50
 70
     1
102
RTVSPropertyOp51
 70
     0
102
RTVSPropertyOp52
 70
     0
102
RTVSPropertyOp53
 70
     1
102
RTVSPropertyOp54
 70
     1
102
RTVSPropertyOp55
 70
     1
102
RTVSPropertyOp56
 70
     1
102
RTVSPropertyOp57
 70
     1
102
RTVSPropertyOp58
 70
     1
102
RTVSPropertyOp59
 70
     1
102
RTVSPropertyOp60
 70
     1
102
RTVSPropertyOp61
 70
     1
102
RTVSPropertyOp62
 70
     1
  0
XRECORD
  5
7B6
102
{ACAD_REACTORS
330
7B5
102
}
330
7B5
100
AcDbXrecord
280
     1
102
RTVSPost2010Prop28
280
     0
102
RTVSPost2010PropOp28
 70
     1
102
RTVSPost2010Prop29
280
     1
102
RTVSPost2010PropOp29
 70
     1
102
RTVSPost2010Prop30
280
     1
102
RTVSPost2010PropOp30
 70
     1
102
RTVSPost2010Prop31
280
     0
102
RTVSPost2010PropOp31
 70
     1
102
RTVSPost2010Prop32
280
     0
102
RTVSPost2010PropOp32
 70
     1
102
RTVSPost2010Prop33
280
     0
102
RTVSPost2010PropOp33
 70
     1
102
RTVSPost2010Prop34
280
     0
102
RTVSPost2010PropOp34
 70
     1
102
RTVSPost2010Prop35
280
     0
102
RTVSPost2010PropOp35
 70
     1
102
RTVSPost2010Prop36
280
     0
102
RTVSPost2010PropOp36
 70
     1
102
RTVSPost2010Prop37
 90
       50
102
RTVSPost2010PropOp37
 70
     1
102
RTVSPost2010Prop38
140
0.0
102
RTVSPost2010PropOp38
 70
     1
102
RTVSPost2010Prop39
140
1.0
102
RTVSPost2010PropOp39
 70
     1
102
RTVSPost2010Prop40
 90
        0
102
RTVSPost2010PropOp40
 70
     1
102
RTVSPost2010Prop41ColorIndex
 90
       18
102
RTVSPost2010Prop41ColorRGB
 90
        0
102
RTVSPost2010PropOp41
 70
     1
102
RTVSPost2010Prop42
 90
       50
102
RTVSPost2010PropOp42
 70
     1
102
RTVSPost2010Prop43
 90
        3
102
RTVSPost2010PropOp43
 70
     1
102
RTVSPost2010Prop44ColorIndex
 90
        5
102
RTVSPost2010Prop44ColorRGB
 90
      255
102
RTVSPost2010PropOp44
 70
     1
102
RTVSPost2010Prop45
280
     0
102
RTVSPost2010PropOp45
 70
     1
102
RTVSPost2010Prop46
 90
       50
102
RTVSPost2010PropOp46
 70
     1
102
RTVSPost2010Prop47
 90
       50
102
RTVSPost2010PropOp47
 70
     1
102
RTVSPost2010Prop48
 90
       50
102
RTVSPost2010PropOp48
 70
     1
102
RTVSPost2010Prop49
280
     0
102
RTVSPost2010PropOp49
 70
     1
102
RTVSPost2010Prop50
 90
       50
102
RTVSPost2010PropOp50
 70
     1
102
RTVSPost2010Prop51ColorIndex
 90
      256
102
RTVSPost2010Prop51ColorRGB
 90
-16777216
102
RTVSPost2010PropOp51
 70
     0
102
RTVSPost2010Prop52
140
1.0
102
RTVSPost2010PropOp52
 70
     0
102
RTVSPost2010Prop53
 90
        2
102
RTVSPost2010PropOp53
 70
     1
102
RTVSPost2010Prop54
  1
strokes_ogs.tif
102
RTVSPost2010PropOp54
 70
     1
102
RTVSPost2010Prop55
280
     0
102
RTVSPost2010PropOp55
 70
     1
102
RTVSPost2010Prop56
140
1.0
102
RTVSPost2010PropOp56
 70
     1
102
RTVSPost2010Prop57
140
1.0
102
RTVSPost2010PropOp57
 70
     1
102
RTVSPropertyOp0
 70
     1
102
RTVSPropertyOp1
 70
     1
102
RTVSPropertyOp2
 70
     1
102
RTVSPropertyOp3
 70
     1
102
RTVSPropertyOp4
 70
     1
102
RTVSPropertyOp5
 70
     1
102
RTVSPropertyOp6
 70
     1
102
RTVSPropertyOp7
 70
     1
102
RTVSPropertyOp8
 70
     1
102
RTVSPropertyOp9
 70
     1
102
RTVSPropertyOp10
 70
     1
102
RTVSPropertyOp11
 70
     1
102
RTVSPropertyOp12
 70
     1
102
RTVSPropertyOp13
 70
     1
102
RTVSPropertyOp14
 70
     1
102
RTVSPropertyOp15
 70
     1
102
RTVSPropertyOp16
 70
     1
102
RTVSPropertyOp17
 70
     1
102
RTVSPropertyOp18
 70
     1
102
RTVSPropertyOp19
 70
     1
102
RTVSPropertyOp20
 70
     1
102
RTVSPropertyOp21
 70
     1
102
RTVSPropertyOp22
 70
     1
102
RTVSPropertyOp23
 70
     1
102
RTVSPropertyOp24
 70
     1
102
RTVSPropertyOp25
 70
     1
102
RTVSPropertyOp26
 70
     1
102
RTVSPropertyOp27
 70
     1
102
RTVSPropertyOp28
 70
     1
102
RTVSPropertyOp29
 70
     1
102
RTVSPropertyOp30
 70
     1
102
RTVSPropertyOp31
 70
     1
102
RTVSPropertyOp32
 70
     1
102
RTVSPropertyOp33
 70
     1
102
RTVSPropertyOp34
 70
     1
102
RTVSPropertyOp35
 70
     1
102
RTVSPropertyOp36
 70
     1
102
RTVSPropertyOp37
 70
     1
102
RTVSPropertyOp38
 70
     1
102
RTVSPropertyOp39
 70
     1
102
RTVSPropertyOp40
 70
     1
102
RTVSPropertyOp41
 70
     1
102
RTVSPropertyOp42
 70
     1
102
RTVSPropertyOp43
 70
     1
102
RTVSPropertyOp44
 70
     1
102
RTVSPropertyOp45
 70
     1
102
RTVSPropertyOp46
 70
     1
102
RTVSPropertyOp47
 70
     1
102
RTVSPropertyOp48
 70
     1
102
RTVSPropertyOp49
 70
     1
102
RTVSPropertyOp50
 70
     1
102
RTVSPropertyOp51
 70
     0
102
RTVSPropertyOp52
 70
     0
102
RTVSPropertyOp53
 70
     1
102
RTVSPropertyOp54
 70
     1
102
RTVSPropertyOp55
 70
     1
102
RTVSPropertyOp56
 70
     1
102
RTVSPropertyOp57
 70
     1
102
RTVSPropertyOp58
 70
     1
102
RTVSPropertyOp59
 70
     1
102
RTVSPropertyOp60
 70
     1
102
RTVSPropertyOp61
 70
     1
102
RTVSPropertyOp62
 70
     1
  0
XRECORD
  5
7D0
102
{ACAD_REACTORS
330
7CF
102
}
330
7CF
100
AcDbXrecord
280
     1
102
RTVSPost2010Prop28
280
     0
102
RTVSPost2010PropOp28
 70
     0
102
RTVSPost2010Prop29
280
     1
102
RTVSPost2010PropOp29
 70
     0
102
RTVSPost2010Prop30
280
     1
102
RTVSPost2010PropOp30
 70
     0
102
RTVSPost2010Prop31
280
     0
102
RTVSPost2010PropOp31
 70
     0
102
RTVSPost2010Prop32
280
     0
102
RTVSPost2010PropOp32
 70
     0
102
RTVSPost2010Prop33
280
     0
102
RTVSPost2010PropOp33
 70
     1
102
RTVSPost2010Prop34
280
     0
102
RTVSPost2010PropOp34
 70
     1
102
RTVSPost2010Prop35
280
     0
102
RTVSPost2010PropOp35
 70
     1
102
RTVSPost2010Prop36
280
     0
102
RTVSPost2010PropOp36
 70
     1
102
RTVSPost2010Prop37
 90
       50
102
RTVSPost2010PropOp37
 70
     1
102
RTVSPost2010Prop38
140
0.0
102
RTVSPost2010PropOp38
 70
     1
102
RTVSPost2010Prop39
140
1.0
102
RTVSPost2010PropOp39
 70
     1
102
RTVSPost2010Prop40
 90
        0
102
RTVSPost2010PropOp40
 70
     1
102
RTVSPost2010Prop41ColorIndex
 90
       18
102
RTVSPost2010Prop41ColorRGB
 90
        0
102
RTVSPost2010PropOp41
 70
     1
102
RTVSPost2010Prop42
 90
       50
102
RTVSPost2010PropOp42
 70
     1
102
RTVSPost2010Prop43
 90
        3
102
RTVSPost2010PropOp43
 70
     1
102
RTVSPost2010Prop44ColorIndex
 90
        5
102
RTVSPost2010Prop44ColorRGB
 90
      255
102
RTVSPost2010PropOp44
 70
     1
102
RTVSPost2010Prop45
280
     0
102
RTVSPost2010PropOp45
 70
     1
102
RTVSPost2010Prop46
 90
       50
102
RTVSPost2010PropOp46
 70
     1
102
RTVSPost2010Prop47
 90
       50
102
RTVSPost2010PropOp47
 70
     1
102
RTVSPost2010Prop48
 90
       50
102
RTVSPost2010PropOp48
 70
     1
102
RTVSPost2010Prop49
280
     0
102
RTVSPost2010PropOp49
 70
     1
102
RTVSPost2010Prop50
 90
       50
102
RTVSPost2010PropOp50
 70
     1
102
RTVSPost2010Prop51ColorIndex
 90
      256
102
RTVSPost2010Prop51ColorRGB
 90
-16777216
102
RTVSPost2010PropOp51
 70
     0
102
RTVSPost2010Prop52
140
1.0
102
RTVSPost2010PropOp52
 70
     0
102
RTVSPost2010Prop53
 90
        2
102
RTVSPost2010PropOp53
 70
     1
102
RTVSPost2010Prop54
  1
strokes_ogs.tif
102
RTVSPost2010PropOp54
 70
     1
102
RTVSPost2010Prop55
280
     0
102
RTVSPost2010PropOp55
 70
     1
102
RTVSPost2010Prop56
140
1.0
102
RTVSPost2010PropOp56
 70
     1
102
RTVSPost2010Prop57
140
1.0
102
RTVSPost2010PropOp57
 70
     1
102
RTVSPropertyOp0
 70
     0
102
RTVSPropertyOp1
 70
     0
102
RTVSPropertyOp2
 70
     0
102
RTVSPropertyOp3
 70
     0
102
RTVSPropertyOp4
 70
     0
102
RTVSPropertyOp5
 70
     0
102
RTVSPropertyOp6
 70
     0
102
RTVSPropertyOp7
 70
     0
102
RTVSPropertyOp8
 70
     0
102
RTVSPropertyOp9
 70
     0
102
RTVSPropertyOp10
 70
     0
102
RTVSPropertyOp11
 70
     0
102
RTVSPropertyOp12
 70
     0
102
RTVSPropertyOp13
 70
     0
102
RTVSPropertyOp14
 70
     2
102
RTVSPropertyOp15
 70
     0
102
RTVSPropertyOp16
 70
     0
102
RTVSPropertyOp17
 70
     0
102
RTVSPropertyOp18
 70
     0
102
RTVSPropertyOp19
 70
     0
102
RTVSPropertyOp20
 70
     0
102
RTVSPropertyOp21
 70
     0
102
RTVSPropertyOp22
 70
     0
102
RTVSPropertyOp23
 70
     0
102
RTVSPropertyOp24
 70
     0
102
RTVSPropertyOp25
 70
     0
102
RTVSPropertyOp26
 70
     0
102
RTVSPropertyOp27
 70
     0
102
RTVSPropertyOp28
 70
     0
102
RTVSPropertyOp29
 70
     0
102
RTVSPropertyOp30
 70
     0
102
RTVSPropertyOp31
 70
     0
102
RTVSPropertyOp32
 70
     0
102
RTVSPropertyOp33
 70
     1
102
RTVSPropertyOp34
 70
     1
102
RTVSPropertyOp35
 70
     1
102
RTVSPropertyOp36
 70
     1
102
RTVSPropertyOp37
 70
     1
102
RTVSPropertyOp38
 70
     1
102
RTVSPropertyOp39
 70
     1
102
RTVSPropertyOp40
 70
     1
102
RTVSPropertyOp41
 70
     1
102
RTVSPropertyOp42
 70
     1
102
RTVSPropertyOp43
 70
     1
102
RTVSPropertyOp44
 70
     1
102
RTVSPropertyOp45
 70
     1
102
RTVSPropertyOp46
 70
     1
102
RTVSPropertyOp47
 70
     1
102
RTVSPropertyOp48
 70
     1
102
RTVSPropertyOp49
 70
     1
102
RTVSPropertyOp50
 70
     1
102
RTVSPropertyOp51
 70
     0
102
RTVSPropertyOp52
 70
     0
102
RTVSPropertyOp53
 70
     1
102
RTVSPropertyOp54
 70
     1
102
RTVSPropertyOp55
 70
     1
102
RTVSPropertyOp56
 70
     1
102
RTVSPropertyOp57
 70
     1
102
RTVSPropertyOp58
 70
     1
102
RTVSPropertyOp59
 70
     1
102
RTVSPropertyOp60
 70
     1
102
RTVSPropertyOp61
 70
     1
102
RTVSPropertyOp62
 70
     1
  0
XRECORD
  5
7BE
102
{ACAD_REACTORS
330
7BD
102
}
330
7BD
100
AcDbXrecord
280
     1
102
RTVSPost2010Prop28
280
     0
102
RTVSPost2010PropOp28
 70
     1
102
RTVSPost2010Prop29
280
     1
102
RTVSPost2010PropOp29
 70
     1
102
RTVSPost2010Prop30
280
     1
102
RTVSPost2010PropOp30
 70
     1
102
RTVSPost2010Prop31
280
     0
102
RTVSPost2010PropOp31
 70
     1
102
RTVSPost2010Prop32
280
     0
102
RTVSPost2010PropOp32
 70
     1
102
RTVSPost2010Prop33
280
     0
102
RTVSPost2010PropOp33
 70
     1
102
RTVSPost2010Prop34
280
     0
102
RTVSPost2010PropOp34
 70
     1
102
RTVSPost2010Prop35
280
     0
102
RTVSPost2010PropOp35
 70
     1
102
RTVSPost2010Prop36
280
     0
102
RTVSPost2010PropOp36
 70
     1
102
RTVSPost2010Prop37
 90
       50
102
RTVSPost2010PropOp37
 70
     1
102
RTVSPost2010Prop38
140
0.0
102
RTVSPost2010PropOp38
 70
     1
102
RTVSPost2010Prop39
140
1.0
102
RTVSPost2010PropOp39
 70
     1
102
RTVSPost2010Prop40
 90
        0
102
RTVSPost2010PropOp40
 70
     1
102
RTVSPost2010Prop41ColorIndex
 90
       18
102
RTVSPost2010Prop41ColorRGB
 90
        0
102
RTVSPost2010PropOp41
 70
     1
102
RTVSPost2010Prop42
 90
       50
102
RTVSPost2010PropOp42
 70
     1
102
RTVSPost2010Prop43
 90
        3
102
RTVSPost2010PropOp43
 70
     1
102
RTVSPost2010Prop44ColorIndex
 90
        5
102
RTVSPost2010Prop44ColorRGB
 90
      255
102
RTVSPost2010PropOp44
 70
     1
102
RTVSPost2010Prop45
280
     0
102
RTVSPost2010PropOp45
 70
     1
102
RTVSPost2010Prop46
 90
       50
102
RTVSPost2010PropOp46
 70
     1
102
RTVSPost2010Prop47
 90
       50
102
RTVSPost2010PropOp47
 70
     1
102
RTVSPost2010Prop48
 90
       50
102
RTVSPost2010PropOp48
 70
     1
102
RTVSPost2010Prop49
280
     0
102
RTVSPost2010PropOp49
 70
     1
102
RTVSPost2010Prop50
 90
       50
102
RTVSPost2010PropOp50
 70
     1
102
RTVSPost2010Prop51ColorIndex
 90
      256
102
RTVSPost2010Prop51ColorRGB
 90
-16777216
102
RTVSPost2010PropOp51
 70
     0
102
RTVSPost2010Prop52
140
1.0
102
RTVSPost2010PropOp52
 70
     0
102
RTVSPost2010Prop53
 90
        2
102
RTVSPost2010PropOp53
 70
     1
102
RTVSPost2010Prop54
  1
strokes_ogs.tif
102
RTVSPost2010PropOp54
 70
     1
102
RTVSPost2010Prop55
280
     0
102
RTVSPost2010PropOp55
 70
     1
102
RTVSPost2010Prop56
140
1.0
102
RTVSPost2010PropOp56
 70
     1
102
RTVSPost2010Prop57
140
1.0
102
RTVSPost2010PropOp57
 70
     1
102
RTVSPropertyOp0
 70
     1
102
RTVSPropertyOp1
 70
     1
102
RTVSPropertyOp2
 70
     1
102
RTVSPropertyOp3
 70
     1
102
RTVSPropertyOp4
 70
     1
102
RTVSPropertyOp5
 70
     1
102
RTVSPropertyOp6
 70
     1
102
RTVSPropertyOp7
 70
     1
102
RTVSPropertyOp8
 70
     1
102
RTVSPropertyOp9
 70
     1
102
RTVSPropertyOp10
 70
     1
102
RTVSPropertyOp11
 70
     1
102
RTVSPropertyOp12
 70
     1
102
RTVSPropertyOp13
 70
     1
102
RTVSPropertyOp14
 70
     1
102
RTVSPropertyOp15
 70
     1
102
RTVSPropertyOp16
 70
     1
102
RTVSPropertyOp17
 70
     1
102
RTVSPropertyOp18
 70
     1
102
RTVSPropertyOp19
 70
     1
102
RTVSPropertyOp20
 70
     1
102
RTVSPropertyOp21
 70
     1
102
RTVSPropertyOp22
 70
     1
102
RTVSPropertyOp23
 70
     1
102
RTVSPropertyOp24
 70
     1
102
RTVSPropertyOp25
 70
     1
102
RTVSPropertyOp26
 70
     1
102
RTVSPropertyOp27
 70
     1
102
RTVSPropertyOp28
 70
     1
102
RTVSPropertyOp29
 70
     1
102
RTVSPropertyOp30
 70
     1
102
RTVSPropertyOp31
 70
     1
102
RTVSPropertyOp32
 70
     1
102
RTVSPropertyOp33
 70
     1
102
RTVSPropertyOp34
 70
     1
102
RTVSPropertyOp35
 70
     1
102
RTVSPropertyOp36
 70
     1
102
RTVSPropertyOp37
 70
     1
102
RTVSPropertyOp38
 70
     1
102
RTVSPropertyOp39
 70
     1
102
RTVSPropertyOp40
 70
     1
102
RTVSPropertyOp41
 70
     1
102
RTVSPropertyOp42
 70
     1
102
RTVSPropertyOp43
 70
     1
102
RTVSPropertyOp44
 70
     1
102
RTVSPropertyOp45
 70
     1
102
RTVSPropertyOp46
 70
     1
102
RTVSPropertyOp47
 70
     1
102
RTVSPropertyOp48
 70
     1
102
RTVSPropertyOp49
 70
     1
102
RTVSPropertyOp50
 70
     1
102
RTVSPropertyOp51
 70
     0
102
RTVSPropertyOp52
 70
     0
102
RTVSPropertyOp53
 70
     1
102
RTVSPropertyOp54
 70
     1
102
RTVSPropertyOp55
 70
     1
102
RTVSPropertyOp56
 70
     1
102
RTVSPropertyOp57
 70
     1
102
RTVSPropertyOp58
 70
     1
102
RTVSPropertyOp59
 70
     1
102
RTVSPropertyOp60
 70
     1
102
RTVSPropertyOp61
 70
     1
102
RTVSPropertyOp62
 70
     1
  0
XRECORD
  5
7A2
102
{ACAD_REACTORS
330
7A1
102
}
330
7A1
100
AcDbXrecord
280
     1
102
RTVSPost2010Prop28
280
     0
102
RTVSPost2010PropOp28
 70
     1
102
RTVSPost2010Prop29
280
     1
102
RTVSPost2010PropOp29
 70
     1
102
RTVSPost2010Prop30
280
     1
102
RTVSPost2010PropOp30
 70
     1
102
RTVSPost2010Prop31
280
     0
102
RTVSPost2010PropOp31
 70
     1
102
RTVSPost2010Prop32
280
     0
102
RTVSPost2010PropOp32
 70
     1
102
RTVSPost2010Prop33
280
     0
102
RTVSPost2010PropOp33
 70
     1
102
RTVSPost2010Prop34
280
     0
102
RTVSPost2010PropOp34
 70
     1
102
RTVSPost2010Prop35
280
     0
102
RTVSPost2010PropOp35
 70
     1
102
RTVSPost2010Prop36
280
     0
102
RTVSPost2010PropOp36
 70
     1
102
RTVSPost2010Prop37
 90
       50
102
RTVSPost2010PropOp37
 70
     1
102
RTVSPost2010Prop38
140
0.0
102
RTVSPost2010PropOp38
 70
     1
102
RTVSPost2010Prop39
140
1.0
102
RTVSPost2010PropOp39
 70
     1
102
RTVSPost2010Prop40
 90
        0
102
RTVSPost2010PropOp40
 70
     1
102
RTVSPost2010Prop41ColorIndex
 90
       18
102
RTVSPost2010Prop41ColorRGB
 90
        0
102
RTVSPost2010PropOp41
 70
     1
102
RTVSPost2010Prop42
 90
       50
102
RTVSPost2010PropOp42
 70
     1
102
RTVSPost2010Prop43
 90
        3
102
RTVSPost2010PropOp43
 70
     1
102
RTVSPost2010Prop44ColorIndex
 90
        5
102
RTVSPost2010Prop44ColorRGB
 90
      255
102
RTVSPost2010PropOp44
 70
     1
102
RTVSPost2010Prop45
280
     0
102
RTVSPost2010PropOp45
 70
     1
102
RTVSPost2010Prop46
 90
       50
102
RTVSPost2010PropOp46
 70
     1
102
RTVSPost2010Prop47
 90
       50
102
RTVSPost2010PropOp47
 70
     1
102
RTVSPost2010Prop48
 90
       50
102
RTVSPost2010PropOp48
 70
     1
102
RTVSPost2010Prop49
280
     0
102
RTVSPost2010PropOp49
 70
     1
102
RTVSPost2010Prop50
 90
       50
102
RTVSPost2010PropOp50
 70
     1
102
RTVSPost2010Prop51ColorIndex
 90
      256
102
RTVSPost2010Prop51ColorRGB
 90
-16777216
102
RTVSPost2010PropOp51
 70
     0
102
RTVSPost2010Prop52
140
1.0
102
RTVSPost2010PropOp52
 70
     0
102
RTVSPost2010Prop53
 90
        2
102
RTVSPost2010PropOp53
 70
     1
102
RTVSPost2010Prop54
  1
strokes_ogs.tif
102
RTVSPost2010PropOp54
 70
     1
102
RTVSPost2010Prop55
280
     0
102
RTVSPost2010PropOp55
 70
     1
102
RTVSPost2010Prop56
140
1.0
102
RTVSPost2010PropOp56
 70
     1
102
RTVSPost2010Prop57
140
1.0
102
RTVSPost2010PropOp57
 70
     1
102
RTVSPropertyOp0
 70
     1
102
RTVSPropertyOp1
 70
     1
102
RTVSPropertyOp2
 70
     1
102
RTVSPropertyOp3
 70
     1
102
RTVSPropertyOp4
 70
     1
102
RTVSPropertyOp5
 70
     1
102
RTVSPropertyOp6
 70
     1
102
RTVSPropertyOp7
 70
     1
102
RTVSPropertyOp8
 70
     1
102
RTVSPropertyOp9
 70
     1
102
RTVSPropertyOp10
 70
     1
102
RTVSPropertyOp11
 70
     1
102
RTVSPropertyOp12
 70
     1
102
RTVSPropertyOp13
 70
     1
102
RTVSPropertyOp14
 70
     1
102
RTVSPropertyOp15
 70
     1
102
RTVSPropertyOp16
 70
     1
102
RTVSPropertyOp17
 70
     1
102
RTVSPropertyOp18
 70
     1
102
RTVSPropertyOp19
 70
     1
102
RTVSPropertyOp20
 70
     1
102
RTVSPropertyOp21
 70
     1
102
RTVSPropertyOp22
 70
     1
102
RTVSPropertyOp23
 70
     1
102
RTVSPropertyOp24
 70
     1
102
RTVSPropertyOp25
 70
     1
102
RTVSPropertyOp26
 70
     1
102
RTVSPropertyOp27
 70
     1
102
RTVSPropertyOp28
 70
     1
102
RTVSPropertyOp29
 70
     1
102
RTVSPropertyOp30
 70
     1
102
RTVSPropertyOp31
 70
     1
102
RTVSPropertyOp32
 70
     1
102
RTVSPropertyOp33
 70
     1
102
RTVSPropertyOp34
 70
     1
102
RTVSPropertyOp35
 70
     1
102
RTVSPropertyOp36
 70
     1
102
RTVSPropertyOp37
 70
     1
102
RTVSPropertyOp38
 70
     1
102
RTVSPropertyOp39
 70
     1
102
RTVSPropertyOp40
 70
     1
102
RTVSPropertyOp41
 70
     1
102
RTVSPropertyOp42
 70
     1
102
RTVSPropertyOp43
 70
     1
102
RTVSPropertyOp44
 70
     1
102
RTVSPropertyOp45
 70
     1
102
RTVSPropertyOp46
 70
     1
102
RTVSPropertyOp47
 70
     1
102
RTVSPropertyOp48
 70
     1
102
RTVSPropertyOp49
 70
     1
102
RTVSPropertyOp50
 70
     1
102
RTVSPropertyOp51
 70
     0
102
RTVSPropertyOp52
 70
     0
102
RTVSPropertyOp53
 70
     1
102
RTVSPropertyOp54
 70
     1
102
RTVSPropertyOp55
 70
     1
102
RTVSPropertyOp56
 70
     1
102
RTVSPropertyOp57
 70
     1
102
RTVSPropertyOp58
 70
     1
102
RTVSPropertyOp59
 70
     1
102
RTVSPropertyOp60
 70
     1
102
RTVSPropertyOp61
 70
     1
102
RTVSPropertyOp62
 70
     1
  0
XRECORD
  5
7A4
102
{ACAD_REACTORS
330
7A3
102
}
330
7A3
100
AcDbXrecord
280
     1
102
RTVSPost2010Prop28
280
     0
102
RTVSPost2010PropOp28
 70
     1
102
RTVSPost2010Prop29
280
     1
102
RTVSPost2010PropOp29
 70
     1
102
RTVSPost2010Prop30
280
     1
102
RTVSPost2010PropOp30
 70
     1
102
RTVSPost2010Prop31
280
     0
102
RTVSPost2010PropOp31
 70
     1
102
RTVSPost2010Prop32
280
     0
102
RTVSPost2010PropOp32
 70
     1
102
RTVSPost2010Prop33
280
     0
102
RTVSPost2010PropOp33
 70
     1
102
RTVSPost2010Prop34
280
     0
102
RTVSPost2010PropOp34
 70
     1
102
RTVSPost2010Prop35
280
     0
102
RTVSPost2010PropOp35
 70
     1
102
RTVSPost2010Prop36
280
     0
102
RTVSPost2010PropOp36
 70
     1
102
RTVSPost2010Prop37
 90
       50
102
RTVSPost2010PropOp37
 70
     1
102
RTVSPost2010Prop38
140
0.0
102
RTVSPost2010PropOp38
 70
     1
102
RTVSPost2010Prop39
140
1.0
102
RTVSPost2010PropOp39
 70
     1
102
RTVSPost2010Prop40
 90
        0
102
RTVSPost2010PropOp40
 70
     1
102
RTVSPost2010Prop41ColorIndex
 90
       18
102
RTVSPost2010Prop41ColorRGB
 90
        0
102
RTVSPost2010PropOp41
 70
     1
102
RTVSPost2010Prop42
 90
       50
102
RTVSPost2010PropOp42
 70
     1
102
RTVSPost2010Prop43
 90
        3
102
RTVSPost2010PropOp43
 70
     1
102
RTVSPost2010Prop44ColorIndex
 90
        5
102
RTVSPost2010Prop44ColorRGB
 90
      255
102
RTVSPost2010PropOp44
 70
     1
102
RTVSPost2010Prop45
280
     0
102
RTVSPost2010PropOp45
 70
     1
102
RTVSPost2010Prop46
 90
       50
102
RTVSPost2010PropOp46
 70
     1
102
RTVSPost2010Prop47
 90
       50
102
RTVSPost2010PropOp47
 70
     1
102
RTVSPost2010Prop48
 90
       50
102
RTVSPost2010PropOp48
 70
     1
102
RTVSPost2010Prop49
280
     0
102
RTVSPost2010PropOp49
 70
     1
102
RTVSPost2010Prop50
 90
       50
102
RTVSPost2010PropOp50
 70
     1
102
RTVSPost2010Prop51ColorIndex
 90
      256
102
RTVSPost2010Prop51ColorRGB
 90
-16777216
102
RTVSPost2010PropOp51
 70
     0
102
RTVSPost2010Prop52
140
1.0
102
RTVSPost2010PropOp52
 70
     0
102
RTVSPost2010Prop53
 90
        2
102
RTVSPost2010PropOp53
 70
     1
102
RTVSPost2010Prop54
  1
strokes_ogs.tif
102
RTVSPost2010PropOp54
 70
     1
102
RTVSPost2010Prop55
280
     0
102
RTVSPost2010PropOp55
 70
     1
102
RTVSPost2010Prop56
140
1.0
102
RTVSPost2010PropOp56
 70
     1
102
RTVSPost2010Prop57
140
1.0
102
RTVSPost2010PropOp57
 70
     1
102
RTVSPropertyOp0
 70
     1
102
RTVSPropertyOp1
 70
     1
102
RTVSPropertyOp2
 70
     1
102
RTVSPropertyOp3
 70
     1
102
RTVSPropertyOp4
 70
     1
102
RTVSPropertyOp5
 70
     1
102
RTVSPropertyOp6
 70
     1
102
RTVSPropertyOp7
 70
     1
102
RTVSPropertyOp8
 70
     1
102
RTVSPropertyOp9
 70
     1
102
RTVSPropertyOp10
 70
     1
102
RTVSPropertyOp11
 70
     1
102
RTVSPropertyOp12
 70
     1
102
RTVSPropertyOp13
 70
     1
102
RTVSPropertyOp14
 70
     1
102
RTVSPropertyOp15
 70
     1
102
RTVSPropertyOp16
 70
     1
102
RTVSPropertyOp17
 70
     1
102
RTVSPropertyOp18
 70
     1
102
RTVSPropertyOp19
 70
     1
102
RTVSPropertyOp20
 70
     1
102
RTVSPropertyOp21
 70
     1
102
RTVSPropertyOp22
 70
     1
102
RTVSPropertyOp23
 70
     1
102
RTVSPropertyOp24
 70
     1
102
RTVSPropertyOp25
 70
     1
102
RTVSPropertyOp26
 70
     1
102
RTVSPropertyOp27
 70
     1
102
RTVSPropertyOp28
 70
     1
102
RTVSPropertyOp29
 70
     1
102
RTVSPropertyOp30
 70
     1
102
RTVSPropertyOp31
 70
     1
102
RTVSPropertyOp32
 70
     1
102
RTVSPropertyOp33
 70
     1
102
RTVSPropertyOp34
 70
     1
102
RTVSPropertyOp35
 70
     1
102
RTVSPropertyOp36
 70
     1
102
RTVSPropertyOp37
 70
     1
102
RTVSPropertyOp38
 70
     1
102
RTVSPropertyOp39
 70
     1
102
RTVSPropertyOp40
 70
     1
102
RTVSPropertyOp41
 70
     1
102
RTVSPropertyOp42
 70
     1
102
RTVSPropertyOp43
 70
     1
102
RTVSPropertyOp44
 70
     1
102
RTVSPropertyOp45
 70
     1
102
RTVSPropertyOp46
 70
     1
102
RTVSPropertyOp47
 70
     1
102
RTVSPropertyOp48
 70
     1
102
RTVSPropertyOp49
 70
     1
102
RTVSPropertyOp50
 70
     1
102
RTVSPropertyOp51
 70
     0
102
RTVSPropertyOp52
 70
     0
102
RTVSPropertyOp53
 70
     1
102
RTVSPropertyOp54
 70
     1
102
RTVSPropertyOp55
 70
     1
102
RTVSPropertyOp56
 70
     1
102
RTVSPropertyOp57
 70
     1
102
RTVSPropertyOp58
 70
     1
102
RTVSPropertyOp59
 70
     1
102
RTVSPropertyOp60
 70
     1
102
RTVSPropertyOp61
 70
     1
102
RTVSPropertyOp62
 70
     1
  0
XRECORD
  5
7A6
102
{ACAD_REACTORS
330
7A5
102
}
330
7A5
100
AcDbXrecord
280
     1
102
RTVSPost2010Prop28
280
     0
102
RTVSPost2010PropOp28
 70
     1
102
RTVSPost2010Prop29
280
     1
102
RTVSPost2010PropOp29
 70
     1
102
RTVSPost2010Prop30
280
     1
102
RTVSPost2010PropOp30
 70
     1
102
RTVSPost2010Prop31
280
     0
102
RTVSPost2010PropOp31
 70
     1
102
RTVSPost2010Prop32
280
     0
102
RTVSPost2010PropOp32
 70
     1
102
RTVSPost2010Prop33
280
     0
102
RTVSPost2010PropOp33
 70
     1
102
RTVSPost2010Prop34
280
     0
102
RTVSPost2010PropOp34
 70
     1
102
RTVSPost2010Prop35
280
     0
102
RTVSPost2010PropOp35
 70
     1
102
RTVSPost2010Prop36
280
     0
102
RTVSPost2010PropOp36
 70
     1
102
RTVSPost2010Prop37
 90
       50
102
RTVSPost2010PropOp37
 70
     1
102
RTVSPost2010Prop38
140
0.0
102
RTVSPost2010PropOp38
 70
     1
102
RTVSPost2010Prop39
140
1.0
102
RTVSPost2010PropOp39
 70
     1
102
RTVSPost2010Prop40
 90
        0
102
RTVSPost2010PropOp40
 70
     1
102
RTVSPost2010Prop41ColorIndex
 90
       18
102
RTVSPost2010Prop41ColorRGB
 90
        0
102
RTVSPost2010PropOp41
 70
     1
102
RTVSPost2010Prop42
 90
       50
102
RTVSPost2010PropOp42
 70
     1
102
RTVSPost2010Prop43
 90
        3
102
RTVSPost2010PropOp43
 70
     1
102
RTVSPost2010Prop44ColorIndex
 90
        5
102
RTVSPost2010Prop44ColorRGB
 90
      255
102
RTVSPost2010PropOp44
 70
     1
102
RTVSPost2010Prop45
280
     0
102
RTVSPost2010PropOp45
 70
     1
102
RTVSPost2010Prop46
 90
       50
102
RTVSPost2010PropOp46
 70
     1
102
RTVSPost2010Prop47
 90
       50
102
RTVSPost2010PropOp47
 70
     1
102
RTVSPost2010Prop48
 90
       50
102
RTVSPost2010PropOp48
 70
     1
102
RTVSPost2010Prop49
280
     0
102
RTVSPost2010PropOp49
 70
     1
102
RTVSPost2010Prop50
 90
       50
102
RTVSPost2010PropOp50
 70
     1
102
RTVSPost2010Prop51ColorIndex
 90
      256
102
RTVSPost2010Prop51ColorRGB
 90
-16777216
102
RTVSPost2010PropOp51
 70
     0
102
RTVSPost2010Prop52
140
1.0
102
RTVSPost2010PropOp52
 70
     0
102
RTVSPost2010Prop53
 90
        2
102
RTVSPost2010PropOp53
 70
     1
102
RTVSPost2010Prop54
  1
strokes_ogs.tif
102
RTVSPost2010PropOp54
 70
     1
102
RTVSPost2010Prop55
280
     0
102
RTVSPost2010PropOp55
 70
     1
102
RTVSPost2010Prop56
140
1.0
102
RTVSPost2010PropOp56
 70
     1
102
RTVSPost2010Prop57
140
1.0
102
RTVSPost2010PropOp57
 70
     1
102
RTVSPropertyOp0
 70
     1
102
RTVSPropertyOp1
 70
     1
102
RTVSPropertyOp2
 70
     1
102
RTVSPropertyOp3
 70
     1
102
RTVSPropertyOp4
 70
     1
102
RTVSPropertyOp5
 70
     1
102
RTVSPropertyOp6
 70
     1
102
RTVSPropertyOp7
 70
     1
102
RTVSPropertyOp8
 70
     1
102
RTVSPropertyOp9
 70
     1
102
RTVSPropertyOp10
 70
     1
102
RTVSPropertyOp11
 70
     1
102
RTVSPropertyOp12
 70
     1
102
RTVSPropertyOp13
 70
     1
102
RTVSPropertyOp14
 70
     1
102
RTVSPropertyOp15
 70
     1
102
RTVSPropertyOp16
 70
     1
102
RTVSPropertyOp17
 70
     1
102
RTVSPropertyOp18
 70
     1
102
RTVSPropertyOp19
 70
     1
102
RTVSPropertyOp20
 70
     1
102
RTVSPropertyOp21
 70
     1
102
RTVSPropertyOp22
 70
     1
102
RTVSPropertyOp23
 70
     1
102
RTVSPropertyOp24
 70
     1
102
RTVSPropertyOp25
 70
     1
102
RTVSPropertyOp26
 70
     1
102
RTVSPropertyOp27
 70
     1
102
RTVSPropertyOp28
 70
     1
102
RTVSPropertyOp29
 70
     1
102
RTVSPropertyOp30
 70
     1
102
RTVSPropertyOp31
 70
     1
102
RTVSPropertyOp32
 70
     1
102
RTVSPropertyOp33
 70
     1
102
RTVSPropertyOp34
 70
     1
102
RTVSPropertyOp35
 70
     1
102
RTVSPropertyOp36
 70
     1
102
RTVSPropertyOp37
 70
     1
102
RTVSPropertyOp38
 70
     1
102
RTVSPropertyOp39
 70
     1
102
RTVSPropertyOp40
 70
     1
102
RTVSPropertyOp41
 70
     1
102
RTVSPropertyOp42
 70
     1
102
RTVSPropertyOp43
 70
     1
102
RTVSPropertyOp44
 70
     1
102
RTVSPropertyOp45
 70
     1
102
RTVSPropertyOp46
 70
     1
102
RTVSPropertyOp47
 70
     1
102
RTVSPropertyOp48
 70
     1
102
RTVSPropertyOp49
 70
     1
102
RTVSPropertyOp50
 70
     1
102
RTVSPropertyOp51
 70
     0
102
RTVSPropertyOp52
 70
     0
102
RTVSPropertyOp53
 70
     1
102
RTVSPropertyOp54
 70
     1
102
RTVSPropertyOp55
 70
     1
102
RTVSPropertyOp56
 70
     1
102
RTVSPropertyOp57
 70
     1
102
RTVSPropertyOp58
 70
     1
102
RTVSPropertyOp59
 70
     1
102
RTVSPropertyOp60
 70
     1
102
RTVSPropertyOp61
 70
     1
102
RTVSPropertyOp62
 70
     1
  0
XRECORD
  5
7A8
102
{ACAD_REACTORS
330
7A7
102
}
330
7A7
100
AcDbXrecord
280
     1
102
RTVSPost2010Prop28
280
     0
102
RTVSPost2010PropOp28
 70
     1
102
RTVSPost2010Prop29
280
     1
102
RTVSPost2010PropOp29
 70
     1
102
RTVSPost2010Prop30
280
     1
102
RTVSPost2010PropOp30
 70
     1
102
RTVSPost2010Prop31
280
     0
102
RTVSPost2010PropOp31
 70
     1
102
RTVSPost2010Prop32
280
     0
102
RTVSPost2010PropOp32
 70
     1
102
RTVSPost2010Prop33
280
     0
102
RTVSPost2010PropOp33
 70
     1
102
RTVSPost2010Prop34
280
     0
102
RTVSPost2010PropOp34
 70
     1
102
RTVSPost2010Prop35
280
     0
102
RTVSPost2010PropOp35
 70
     1
102
RTVSPost2010Prop36
280
     0
102
RTVSPost2010PropOp36
 70
     1
102
RTVSPost2010Prop37
 90
       50
102
RTVSPost2010PropOp37
 70
     1
102
RTVSPost2010Prop38
140
0.0
102
RTVSPost2010PropOp38
 70
     1
102
RTVSPost2010Prop39
140
1.0
102
RTVSPost2010PropOp39
 70
     1
102
RTVSPost2010Prop40
 90
        0
102
RTVSPost2010PropOp40
 70
     1
102
RTVSPost2010Prop41ColorIndex
 90
       18
102
RTVSPost2010Prop41ColorRGB
 90
        0
102
RTVSPost2010PropOp41
 70
     1
102
RTVSPost2010Prop42
 90
       50
102
RTVSPost2010PropOp42
 70
     1
102
RTVSPost2010Prop43
 90
        3
102
RTVSPost2010PropOp43
 70
     1
102
RTVSPost2010Prop44ColorIndex
 90
        5
102
RTVSPost2010Prop44ColorRGB
 90
      255
102
RTVSPost2010PropOp44
 70
     1
102
RTVSPost2010Prop45
280
     0
102
RTVSPost2010PropOp45
 70
     1
102
RTVSPost2010Prop46
 90
       50
102
RTVSPost2010PropOp46
 70
     1
102
RTVSPost2010Prop47
 90
       50
102
RTVSPost2010PropOp47
 70
     1
102
RTVSPost2010Prop48
 90
       50
102
RTVSPost2010PropOp48
 70
     1
102
RTVSPost2010Prop49
280
     0
102
RTVSPost2010PropOp49
 70
     1
102
RTVSPost2010Prop50
 90
       50
102
RTVSPost2010PropOp50
 70
     1
102
RTVSPost2010Prop51ColorIndex
 90
      256
102
RTVSPost2010Prop51ColorRGB
 90
-16777216
102
RTVSPost2010PropOp51
 70
     0
102
RTVSPost2010Prop52
140
1.0
102
RTVSPost2010PropOp52
 70
     0
102
RTVSPost2010Prop53
 90
        2
102
RTVSPost2010PropOp53
 70
     1
102
RTVSPost2010Prop54
  1
strokes_ogs.tif
102
RTVSPost2010PropOp54
 70
     1
102
RTVSPost2010Prop55
280
     0
102
RTVSPost2010PropOp55
 70
     1
102
RTVSPost2010Prop56
140
1.0
102
RTVSPost2010PropOp56
 70
     1
102
RTVSPost2010Prop57
140
1.0
102
RTVSPost2010PropOp57
 70
     1
102
RTVSPropertyOp0
 70
     1
102
RTVSPropertyOp1
 70
     1
102
RTVSPropertyOp2
 70
     1
102
RTVSPropertyOp3
 70
     1
102
RTVSPropertyOp4
 70
     1
102
RTVSPropertyOp5
 70
     1
102
RTVSPropertyOp6
 70
     1
102
RTVSPropertyOp7
 70
     1
102
RTVSPropertyOp8
 70
     1
102
RTVSPropertyOp9
 70
     1
102
RTVSPropertyOp10
 70
     1
102
RTVSPropertyOp11
 70
     1
102
RTVSPropertyOp12
 70
     1
102
RTVSPropertyOp13
 70
     1
102
RTVSPropertyOp14
 70
     1
102
RTVSPropertyOp15
 70
     1
102
RTVSPropertyOp16
 70
     1
102
RTVSPropertyOp17
 70
     1
102
RTVSPropertyOp18
 70
     1
102
RTVSPropertyOp19
 70
     1
102
RTVSPropertyOp20
 70
     1
102
RTVSPropertyOp21
 70
     1
102
RTVSPropertyOp22
 70
     1
102
RTVSPropertyOp23
 70
     1
102
RTVSPropertyOp24
 70
     1
102
RTVSPropertyOp25
 70
     1
102
RTVSPropertyOp26
 70
     1
102
RTVSPropertyOp27
 70
     1
102
RTVSPropertyOp28
 70
     1
102
RTVSPropertyOp29
 70
     1
102
RTVSPropertyOp30
 70
     1
102
RTVSPropertyOp31
 70
     1
102
RTVSPropertyOp32
 70
     1
102
RTVSPropertyOp33
 70
     1
102
RTVSPropertyOp34
 70
     1
102
RTVSPropertyOp35
 70
     1
102
RTVSPropertyOp36
 70
     1
102
RTVSPropertyOp37
 70
     1
102
RTVSPropertyOp38
 70
     1
102
RTVSPropertyOp39
 70
     1
102
RTVSPropertyOp40
 70
     1
102
RTVSPropertyOp41
 70
     1
102
RTVSPropertyOp42
 70
     1
102
RTVSPropertyOp43
 70
     1
102
RTVSPropertyOp44
 70
     1
102
RTVSPropertyOp45
 70
     1
102
RTVSPropertyOp46
 70
     1
102
RTVSPropertyOp47
 70
     1
102
RTVSPropertyOp48
 70
     1
102
RTVSPropertyOp49
 70
     1
102
RTVSPropertyOp50
 70
     1
102
RTVSPropertyOp51
 70
     0
102
RTVSPropertyOp52
 70
     0
102
RTVSPropertyOp53
 70
     1
102
RTVSPropertyOp54
 70
     1
102
RTVSPropertyOp55
 70
     1
102
RTVSPropertyOp56
 70
     1
102
RTVSPropertyOp57
 70
     1
102
RTVSPropertyOp58
 70
     1
102
RTVSPropertyOp59
 70
     1
102
RTVSPropertyOp60
 70
     1
102
RTVSPropertyOp61
 70
     1
102
RTVSPropertyOp62
 70
     1
  0
XRECORD
  5
7B0
102
{ACAD_REACTORS
330
7AF
102
}
330
7AF
100
AcDbXrecord
280
     1
102
RTVSPost2010Prop28
280
     0
102
RTVSPost2010PropOp28
 70
     1
102
RTVSPost2010Prop29
280
     1
102
RTVSPost2010PropOp29
 70
     1
102
RTVSPost2010Prop30
280
     1
102
RTVSPost2010PropOp30
 70
     1
102
RTVSPost2010Prop31
280
     0
102
RTVSPost2010PropOp31
 70
     1
102
RTVSPost2010Prop32
280
     0
102
RTVSPost2010PropOp32
 70
     1
102
RTVSPost2010Prop33
280
     0
102
RTVSPost2010PropOp33
 70
     1
102
RTVSPost2010Prop34
280
     0
102
RTVSPost2010PropOp34
 70
     1
102
RTVSPost2010Prop35
280
     0
102
RTVSPost2010PropOp35
 70
     1
102
RTVSPost2010Prop36
280
     0
102
RTVSPost2010PropOp36
 70
     1
102
RTVSPost2010Prop37
 90
       50
102
RTVSPost2010PropOp37
 70
     1
102
RTVSPost2010Prop38
140
0.0
102
RTVSPost2010PropOp38
 70
     1
102
RTVSPost2010Prop39
140
1.0
102
RTVSPost2010PropOp39
 70
     1
102
RTVSPost2010Prop40
 90
        0
102
RTVSPost2010PropOp40
 70
     1
102
RTVSPost2010Prop41ColorIndex
 90
       18
102
RTVSPost2010Prop41ColorRGB
 90
        0
102
RTVSPost2010PropOp41
 70
     1
102
RTVSPost2010Prop42
 90
       50
102
RTVSPost2010PropOp42
 70
     1
102
RTVSPost2010Prop43
 90
        3
102
RTVSPost2010PropOp43
 70
     1
102
RTVSPost2010Prop44ColorIndex
 90
        5
102
RTVSPost2010Prop44ColorRGB
 90
      255
102
RTVSPost2010PropOp44
 70
     1
102
RTVSPost2010Prop45
280
     0
102
RTVSPost2010PropOp45
 70
     1
102
RTVSPost2010Prop46
 90
       50
102
RTVSPost2010PropOp46
 70
     1
102
RTVSPost2010Prop47
 90
       50
102
RTVSPost2010PropOp47
 70
     1
102
RTVSPost2010Prop48
 90
       50
102
RTVSPost2010PropOp48
 70
     1
102
RTVSPost2010Prop49
280
     0
102
RTVSPost2010PropOp49
 70
     1
102
RTVSPost2010Prop50
 90
       50
102
RTVSPost2010PropOp50
 70
     1
102
RTVSPost2010Prop51ColorIndex
 90
      256
102
RTVSPost2010Prop51ColorRGB
 90
-16777216
102
RTVSPost2010PropOp51
 70
     0
102
RTVSPost2010Prop52
140
1.0
102
RTVSPost2010PropOp52
 70
     0
102
RTVSPost2010Prop53
 90
        2
102
RTVSPost2010PropOp53
 70
     1
102
RTVSPost2010Prop54
  1
strokes_ogs.tif
102
RTVSPost2010PropOp54
 70
     1
102
RTVSPost2010Prop55
280
     0
102
RTVSPost2010PropOp55
 70
     1
102
RTVSPost2010Prop56
140
1.0
102
RTVSPost2010PropOp56
 70
     1
102
RTVSPost2010Prop57
140
1.0
102
RTVSPost2010PropOp57
 70
     1
102
RTVSPropertyOp0
 70
     1
102
RTVSPropertyOp1
 70
     1
102
RTVSPropertyOp2
 70
     1
102
RTVSPropertyOp3
 70
     1
102
RTVSPropertyOp4
 70
     1
102
RTVSPropertyOp5
 70
     1
102
RTVSPropertyOp6
 70
     1
102
RTVSPropertyOp7
 70
     1
102
RTVSPropertyOp8
 70
     1
102
RTVSPropertyOp9
 70
     1
102
RTVSPropertyOp10
 70
     1
102
RTVSPropertyOp11
 70
     1
102
RTVSPropertyOp12
 70
     1
102
RTVSPropertyOp13
 70
     1
102
RTVSPropertyOp14
 70
     1
102
RTVSPropertyOp15
 70
     1
102
RTVSPropertyOp16
 70
     1
102
RTVSPropertyOp17
 70
     1
102
RTVSPropertyOp18
 70
     1
102
RTVSPropertyOp19
 70
     1
102
RTVSPropertyOp20
 70
     1
102
RTVSPropertyOp21
 70
     1
102
RTVSPropertyOp22
 70
     1
102
RTVSPropertyOp23
 70
     1
102
RTVSPropertyOp24
 70
     1
102
RTVSPropertyOp25
 70
     1
102
RTVSPropertyOp26
 70
     1
102
RTVSPropertyOp27
 70
     1
102
RTVSPropertyOp28
 70
     1
102
RTVSPropertyOp29
 70
     1
102
RTVSPropertyOp30
 70
     1
102
RTVSPropertyOp31
 70
     1
102
RTVSPropertyOp32
 70
     1
102
RTVSPropertyOp33
 70
     1
102
RTVSPropertyOp34
 70
     1
102
RTVSPropertyOp35
 70
     1
102
RTVSPropertyOp36
 70
     1
102
RTVSPropertyOp37
 70
     1
102
RTVSPropertyOp38
 70
     1
102
RTVSPropertyOp39
 70
     1
102
RTVSPropertyOp40
 70
     1
102
RTVSPropertyOp41
 70
     1
102
RTVSPropertyOp42
 70
     1
102
RTVSPropertyOp43
 70
     1
102
RTVSPropertyOp44
 70
     1
102
RTVSPropertyOp45
 70
     1
102
RTVSPropertyOp46
 70
     1
102
RTVSPropertyOp47
 70
     1
102
RTVSPropertyOp48
 70
     1
102
RTVSPropertyOp49
 70
     1
102
RTVSPropertyOp50
 70
     1
102
RTVSPropertyOp51
 70
     0
102
RTVSPropertyOp52
 70
     0
102
RTVSPropertyOp53
 70
     1
102
RTVSPropertyOp54
 70
     1
102
RTVSPropertyOp55
 70
     1
102
RTVSPropertyOp56
 70
     1
102
RTVSPropertyOp57
 70
     1
102
RTVSPropertyOp58
 70
     1
102
RTVSPropertyOp59
 70
     1
102
RTVSPropertyOp60
 70
     1
102
RTVSPropertyOp61
 70
     1
102
RTVSPropertyOp62
 70
     1
  0
XRECORD
  5
7CC
102
{ACAD_REACTORS
330
7CB
102
}
330
7CB
100
AcDbXrecord
280
     1
102
RTVSPost2010Prop28
280
     0
102
RTVSPost2010PropOp28
 70
     0
102
RTVSPost2010Prop29
280
     1
102
RTVSPost2010PropOp29
 70
     0
102
RTVSPost2010Prop30
280
     1
102
RTVSPost2010PropOp30
 70
     0
102
RTVSPost2010Prop31
280
     0
102
RTVSPost2010PropOp31
 70
     0
102
RTVSPost2010Prop32
280
     0
102
RTVSPost2010PropOp32
 70
     0
102
RTVSPost2010Prop33
280
     0
102
RTVSPost2010PropOp33
 70
     1
102
RTVSPost2010Prop34
280
     0
102
RTVSPost2010PropOp34
 70
     1
102
RTVSPost2010Prop35
280
     0
102
RTVSPost2010PropOp35
 70
     1
102
RTVSPost2010Prop36
280
     0
102
RTVSPost2010PropOp36
 70
     1
102
RTVSPost2010Prop37
 90
       50
102
RTVSPost2010PropOp37
 70
     1
102
RTVSPost2010Prop38
140
0.0
102
RTVSPost2010PropOp38
 70
     1
102
RTVSPost2010Prop39
140
1.0
102
RTVSPost2010PropOp39
 70
     1
102
RTVSPost2010Prop40
 90
        0
102
RTVSPost2010PropOp40
 70
     1
102
RTVSPost2010Prop41ColorIndex
 90
       18
102
RTVSPost2010Prop41ColorRGB
 90
        0
102
RTVSPost2010PropOp41
 70
     1
102
RTVSPost2010Prop42
 90
       50
102
RTVSPost2010PropOp42
 70
     1
102
RTVSPost2010Prop43
 90
        3
102
RTVSPost2010PropOp43
 70
     1
102
RTVSPost2010Prop44ColorIndex
 90
        5
102
RTVSPost2010Prop44ColorRGB
 90
      255
102
RTVSPost2010PropOp44
 70
     1
102
RTVSPost2010Prop45
280
     0
102
RTVSPost2010PropOp45
 70
     1
102
RTVSPost2010Prop46
 90
       50
102
RTVSPost2010PropOp46
 70
     1
102
RTVSPost2010Prop47
 90
       50
102
RTVSPost2010PropOp47
 70
     1
102
RTVSPost2010Prop48
 90
       50
102
RTVSPost2010PropOp48
 70
     1
102
RTVSPost2010Prop49
280
     0
102
RTVSPost2010PropOp49
 70
     1
102
RTVSPost2010Prop50
 90
       50
102
RTVSPost2010PropOp50
 70
     1
102
RTVSPost2010Prop51ColorIndex
 90
      256
102
RTVSPost2010Prop51ColorRGB
 90
-16777216
102
RTVSPost2010PropOp51
 70
     0
102
RTVSPost2010Prop52
140
1.0
102
RTVSPost2010PropOp52
 70
     0
102
RTVSPost2010Prop53
 90
        2
102
RTVSPost2010PropOp53
 70
     1
102
RTVSPost2010Prop54
  1
strokes_ogs.tif
102
RTVSPost2010PropOp54
 70
     1
102
RTVSPost2010Prop55
280
     0
102
RTVSPost2010PropOp55
 70
     1
102
RTVSPost2010Prop56
140
1.0
102
RTVSPost2010PropOp56
 70
     1
102
RTVSPost2010Prop57
140
1.0
102
RTVSPost2010PropOp57
 70
     1
102
RTVSPropertyOp0
 70
     0
102
RTVSPropertyOp1
 70
     0
102
RTVSPropertyOp2
 70
     0
102
RTVSPropertyOp3
 70
     0
102
RTVSPropertyOp4
 70
     0
102
RTVSPropertyOp5
 70
     0
102
RTVSPropertyOp6
 70
     0
102
RTVSPropertyOp7
 70
     0
102
RTVSPropertyOp8
 70
     0
102
RTVSPropertyOp9
 70
     0
102
RTVSPropertyOp10
 70
     0
102
RTVSPropertyOp11
 70
     0
102
RTVSPropertyOp12
 70
     0
102
RTVSPropertyOp13
 70
     0
102
RTVSPropertyOp14
 70
     2
102
RTVSPropertyOp15
 70
     0
102
RTVSPropertyOp16
 70
     0
102
RTVSPropertyOp17
 70
     0
102
RTVSPropertyOp18
 70
     0
102
RTVSPropertyOp19
 70
     0
102
RTVSPropertyOp20
 70
     0
102
RTVSPropertyOp21
 70
     0
102
RTVSPropertyOp22
 70
     0
102
RTVSPropertyOp23
 70
     0
102
RTVSPropertyOp24
 70
     0
102
RTVSPropertyOp25
 70
     0
102
RTVSPropertyOp26
 70
     0
102
RTVSPropertyOp27
 70
     0
102
RTVSPropertyOp28
 70
     0
102
RTVSPropertyOp29
 70
     0
102
RTVSPropertyOp30
 70
     0
102
RTVSPropertyOp31
 70
     0
102
RTVSPropertyOp32
 70
     0
102
RTVSPropertyOp33
 70
     1
102
RTVSPropertyOp34
 70
     1
102
RTVSPropertyOp35
 70
     1
102
RTVSPropertyOp36
 70
     1
102
RTVSPropertyOp37
 70
     1
102
RTVSPropertyOp38
 70
     1
102
RTVSPropertyOp39
 70
     1
102
RTVSPropertyOp40
 70
     1
102
RTVSPropertyOp41
 70
     1
102
RTVSPropertyOp42
 70
     1
102
RTVSPropertyOp43
 70
     1
102
RTVSPropertyOp44
 70
     1
102
RTVSPropertyOp45
 70
     1
102
RTVSPropertyOp46
 70
     1
102
RTVSPropertyOp47
 70
     1
102
RTVSPropertyOp48
 70
     1
102
RTVSPropertyOp49
 70
     1
102
RTVSPropertyOp50
 70
     1
102
RTVSPropertyOp51
 70
     0
102
RTVSPropertyOp52
 70
     0
102
RTVSPropertyOp53
 70
     1
102
RTVSPropertyOp54
 70
     1
102
RTVSPropertyOp55
 70
     1
102
RTVSPropertyOp56
 70
     1
102
RTVSPropertyOp57
 70
     1
102
RTVSPropertyOp58
 70
     1
102
RTVSPropertyOp59
 70
     1
102
RTVSPropertyOp60
 70
     1
102
RTVSPropertyOp61
 70
     1
102
RTVSPropertyOp62
 70
     1
  0
XRECORD
  5
7BC
102
{ACAD_REACTORS
330
7BB
102
}
330
7BB
100
AcDbXrecord
280
     1
102
RTVSPost2010Prop28
280
     0
102
RTVSPost2010PropOp28
 70
     1
102
RTVSPost2010Prop29
280
     1
102
RTVSPost2010PropOp29
 70
     1
102
RTVSPost2010Prop30
280
     1
102
RTVSPost2010PropOp30
 70
     1
102
RTVSPost2010Prop31
280
     0
102
RTVSPost2010PropOp31
 70
     1
102
RTVSPost2010Prop32
280
     0
102
RTVSPost2010PropOp32
 70
     1
102
RTVSPost2010Prop33
280
     0
102
RTVSPost2010PropOp33
 70
     1
102
RTVSPost2010Prop34
280
     0
102
RTVSPost2010PropOp34
 70
     1
102
RTVSPost2010Prop35
280
     0
102
RTVSPost2010PropOp35
 70
     1
102
RTVSPost2010Prop36
280
     0
102
RTVSPost2010PropOp36
 70
     1
102
RTVSPost2010Prop37
 90
       50
102
RTVSPost2010PropOp37
 70
     1
102
RTVSPost2010Prop38
140
0.0
102
RTVSPost2010PropOp38
 70
     1
102
RTVSPost2010Prop39
140
1.0
102
RTVSPost2010PropOp39
 70
     1
102
RTVSPost2010Prop40
 90
        0
102
RTVSPost2010PropOp40
 70
     1
102
RTVSPost2010Prop41ColorIndex
 90
       18
102
RTVSPost2010Prop41ColorRGB
 90
        0
102
RTVSPost2010PropOp41
 70
     1
102
RTVSPost2010Prop42
 90
       50
102
RTVSPost2010PropOp42
 70
     1
102
RTVSPost2010Prop43
 90
        3
102
RTVSPost2010PropOp43
 70
     1
102
RTVSPost2010Prop44ColorIndex
 90
        5
102
RTVSPost2010Prop44ColorRGB
 90
      255
102
RTVSPost2010PropOp44
 70
     1
102
RTVSPost2010Prop45
280
     0
102
RTVSPost2010PropOp45
 70
     1
102
RTVSPost2010Prop46
 90
       50
102
RTVSPost2010PropOp46
 70
     1
102
RTVSPost2010Prop47
 90
       50
102
RTVSPost2010PropOp47
 70
     1
102
RTVSPost2010Prop48
 90
       50
102
RTVSPost2010PropOp48
 70
     1
102
RTVSPost2010Prop49
280
     0
102
RTVSPost2010PropOp49
 70
     1
102
RTVSPost2010Prop50
 90
       50
102
RTVSPost2010PropOp50
 70
     1
102
RTVSPost2010Prop51ColorIndex
 90
      256
102
RTVSPost2010Prop51ColorRGB
 90
-16777216
102
RTVSPost2010PropOp51
 70
     0
102
RTVSPost2010Prop52
140
1.0
102
RTVSPost2010PropOp52
 70
     0
102
RTVSPost2010Prop53
 90
        2
102
RTVSPost2010PropOp53
 70
     1
102
RTVSPost2010Prop54
  1
strokes_ogs.tif
102
RTVSPost2010PropOp54
 70
     1
102
RTVSPost2010Prop55
280
     0
102
RTVSPost2010PropOp55
 70
     1
102
RTVSPost2010Prop56
140
1.0
102
RTVSPost2010PropOp56
 70
     1
102
RTVSPost2010Prop57
140
1.0
102
RTVSPost2010PropOp57
 70
     1
102
RTVSPropertyOp0
 70
     1
102
RTVSPropertyOp1
 70
     1
102
RTVSPropertyOp2
 70
     1
102
RTVSPropertyOp3
 70
     1
102
RTVSPropertyOp4
 70
     1
102
RTVSPropertyOp5
 70
     1
102
RTVSPropertyOp6
 70
     1
102
RTVSPropertyOp7
 70
     1
102
RTVSPropertyOp8
 70
     1
102
RTVSPropertyOp9
 70
     1
102
RTVSPropertyOp10
 70
     1
102
RTVSPropertyOp11
 70
     1
102
RTVSPropertyOp12
 70
     1
102
RTVSPropertyOp13
 70
     1
102
RTVSPropertyOp14
 70
     1
102
RTVSPropertyOp15
 70
     1
102
RTVSPropertyOp16
 70
     1
102
RTVSPropertyOp17
 70
     1
102
RTVSPropertyOp18
 70
     1
102
RTVSPropertyOp19
 70
     1
102
RTVSPropertyOp20
 70
     1
102
RTVSPropertyOp21
 70
     1
102
RTVSPropertyOp22
 70
     1
102
RTVSPropertyOp23
 70
     1
102
RTVSPropertyOp24
 70
     1
102
RTVSPropertyOp25
 70
     1
102
RTVSPropertyOp26
 70
     1
102
RTVSPropertyOp27
 70
     1
102
RTVSPropertyOp28
 70
     1
102
RTVSPropertyOp29
 70
     1
102
RTVSPropertyOp30
 70
     1
102
RTVSPropertyOp31
 70
     1
102
RTVSPropertyOp32
 70
     1
102
RTVSPropertyOp33
 70
     1
102
RTVSPropertyOp34
 70
     1
102
RTVSPropertyOp35
 70
     1
102
RTVSPropertyOp36
 70
     1
102
RTVSPropertyOp37
 70
     1
102
RTVSPropertyOp38
 70
     1
102
RTVSPropertyOp39
 70
     1
102
RTVSPropertyOp40
 70
     1
102
RTVSPropertyOp41
 70
     1
102
RTVSPropertyOp42
 70
     1
102
RTVSPropertyOp43
 70
     1
102
RTVSPropertyOp44
 70
     1
102
RTVSPropertyOp45
 70
     1
102
RTVSPropertyOp46
 70
     1
102
RTVSPropertyOp47
 70
     1
102
RTVSPropertyOp48
 70
     1
102
RTVSPropertyOp49
 70
     1
102
RTVSPropertyOp50
 70
     1
102
RTVSPropertyOp51
 70
     0
102
RTVSPropertyOp52
 70
     0
102
RTVSPropertyOp53
 70
     1
102
RTVSPropertyOp54
 70
     1
102
RTVSPropertyOp55
 70
     1
102
RTVSPropertyOp56
 70
     1
102
RTVSPropertyOp57
 70
     1
102
RTVSPropertyOp58
 70
     1
102
RTVSPropertyOp59
 70
     1
102
RTVSPropertyOp60
 70
     1
102
RTVSPropertyOp61
 70
     1
102
RTVSPropertyOp62
 70
     1
  0
XRECORD
  5
7CE
102
{ACAD_REACTORS
330
7CD
102
}
330
7CD
100
AcDbXrecord
280
     1
102
RTVSPost2010Prop28
280
     0
102
RTVSPost2010PropOp28
 70
     0
102
RTVSPost2010Prop29
280
     1
102
RTVSPost2010PropOp29
 70
     0
102
RTVSPost2010Prop30
280
     1
102
RTVSPost2010PropOp30
 70
     0
102
RTVSPost2010Prop31
280
     0
102
RTVSPost2010PropOp31
 70
     0
102
RTVSPost2010Prop32
280
     0
102
RTVSPost2010PropOp32
 70
     0
102
RTVSPost2010Prop33
280
     0
102
RTVSPost2010PropOp33
 70
     1
102
RTVSPost2010Prop34
280
     0
102
RTVSPost2010PropOp34
 70
     1
102
RTVSPost2010Prop35
280
     0
102
RTVSPost2010PropOp35
 70
     1
102
RTVSPost2010Prop36
280
     0
102
RTVSPost2010PropOp36
 70
     1
102
RTVSPost2010Prop37
 90
       50
102
RTVSPost2010PropOp37
 70
     1
102
RTVSPost2010Prop38
140
0.0
102
RTVSPost2010PropOp38
 70
     1
102
RTVSPost2010Prop39
140
1.0
102
RTVSPost2010PropOp39
 70
     1
102
RTVSPost2010Prop40
 90
        0
102
RTVSPost2010PropOp40
 70
     1
102
RTVSPost2010Prop41ColorIndex
 90
       18
102
RTVSPost2010Prop41ColorRGB
 90
        0
102
RTVSPost2010PropOp41
 70
     1
102
RTVSPost2010Prop42
 90
       50
102
RTVSPost2010PropOp42
 70
     1
102
RTVSPost2010Prop43
 90
        3
102
RTVSPost2010PropOp43
 70
     1
102
RTVSPost2010Prop44ColorIndex
 90
        5
102
RTVSPost2010Prop44ColorRGB
 90
      255
102
RTVSPost2010PropOp44
 70
     1
102
RTVSPost2010Prop45
280
     0
102
RTVSPost2010PropOp45
 70
     1
102
RTVSPost2010Prop46
 90
       50
102
RTVSPost2010PropOp46
 70
     1
102
RTVSPost2010Prop47
 90
       50
102
RTVSPost2010PropOp47
 70
     1
102
RTVSPost2010Prop48
 90
       50
102
RTVSPost2010PropOp48
 70
     1
102
RTVSPost2010Prop49
280
     0
102
RTVSPost2010PropOp49
 70
     1
102
RTVSPost2010Prop50
 90
       50
102
RTVSPost2010PropOp50
 70
     1
102
RTVSPost2010Prop51ColorIndex
 90
      256
102
RTVSPost2010Prop51ColorRGB
 90
-16777216
102
RTVSPost2010PropOp51
 70
     0
102
RTVSPost2010Prop52
140
1.0
102
RTVSPost2010PropOp52
 70
     0
102
RTVSPost2010Prop53
 90
        2
102
RTVSPost2010PropOp53
 70
     1
102
RTVSPost2010Prop54
  1
strokes_ogs.tif
102
RTVSPost2010PropOp54
 70
     1
102
RTVSPost2010Prop55
280
     0
102
RTVSPost2010PropOp55
 70
     1
102
RTVSPost2010Prop56
140
1.0
102
RTVSPost2010PropOp56
 70
     1
102
RTVSPost2010Prop57
140
1.0
102
RTVSPost2010PropOp57
 70
     1
102
RTVSPropertyOp0
 70
     0
102
RTVSPropertyOp1
 70
     0
102
RTVSPropertyOp2
 70
     0
102
RTVSPropertyOp3
 70
     0
102
RTVSPropertyOp4
 70
     0
102
RTVSPropertyOp5
 70
     0
102
RTVSPropertyOp6
 70
     0
102
RTVSPropertyOp7
 70
     0
102
RTVSPropertyOp8
 70
     0
102
RTVSPropertyOp9
 70
     0
102
RTVSPropertyOp10
 70
     0
102
RTVSPropertyOp11
 70
     0
102
RTVSPropertyOp12
 70
     0
102
RTVSPropertyOp13
 70
     0
102
RTVSPropertyOp14
 70
     2
102
RTVSPropertyOp15
 70
     0
102
RTVSPropertyOp16
 70
     0
102
RTVSPropertyOp17
 70
     0
102
RTVSPropertyOp18
 70
     0
102
RTVSPropertyOp19
 70
     0
102
RTVSPropertyOp20
 70
     0
102
RTVSPropertyOp21
 70
     0
102
RTVSPropertyOp22
 70
     0
102
RTVSPropertyOp23
 70
     0
102
RTVSPropertyOp24
 70
     0
102
RTVSPropertyOp25
 70
     0
102
RTVSPropertyOp26
 70
     0
102
RTVSPropertyOp27
 70
     0
102
RTVSPropertyOp28
 70
     0
102
RTVSPropertyOp29
 70
     0
102
RTVSPropertyOp30
 70
     0
102
RTVSPropertyOp31
 70
     0
102
RTVSPropertyOp32
 70
     0
102
RTVSPropertyOp33
 70
     1
102
RTVSPropertyOp34
 70
     1
102
RTVSPropertyOp35
 70
     1
102
RTVSPropertyOp36
 70
     1
102
RTVSPropertyOp37
 70
     1
102
RTVSPropertyOp38
 70
     1
102
RTVSPropertyOp39
 70
     1
102
RTVSPropertyOp40
 70
     1
102
RTVSPropertyOp41
 70
     1
102
RTVSPropertyOp42
 70
     1
102
RTVSPropertyOp43
 70
     1
102
RTVSPropertyOp44
 70
     1
102
RTVSPropertyOp45
 70
     1
102
RTVSPropertyOp46
 70
     1
102
RTVSPropertyOp47
 70
     1
102
RTVSPropertyOp48
 70
     1
102
RTVSPropertyOp49
 70
     1
102
RTVSPropertyOp50
 70
     1
102
RTVSPropertyOp51
 70
     0
102
RTVSPropertyOp52
 70
     0
102
RTVSPropertyOp53
 70
     1
102
RTVSPropertyOp54
 70
     1
102
RTVSPropertyOp55
 70
     1
102
RTVSPropertyOp56
 70
     1
102
RTVSPropertyOp57
 70
     1
102
RTVSPropertyOp58
 70
     1
102
RTVSPropertyOp59
 70
     1
102
RTVSPropertyOp60
 70
     1
102
RTVSPropertyOp61
 70
     1
102
RTVSPropertyOp62
 70
     1
  0
XRECORD
  5
7B4
102
{ACAD_REACTORS
330
7B3
102
}
330
7B3
100
AcDbXrecord
280
     1
102
RTVSPost2010Prop28
280
     0
102
RTVSPost2010PropOp28
 70
     1
102
RTVSPost2010Prop29
280
     1
102
RTVSPost2010PropOp29
 70
     1
102
RTVSPost2010Prop30
280
     1
102
RTVSPost2010PropOp30
 70
     1
102
RTVSPost2010Prop31
280
     0
102
RTVSPost2010PropOp31
 70
     1
102
RTVSPost2010Prop32
280
     0
102
RTVSPost2010PropOp32
 70
     1
102
RTVSPost2010Prop33
280
     0
102
RTVSPost2010PropOp33
 70
     1
102
RTVSPost2010Prop34
280
     0
102
RTVSPost2010PropOp34
 70
     1
102
RTVSPost2010Prop35
280
     0
102
RTVSPost2010PropOp35
 70
     1
102
RTVSPost2010Prop36
280
     0
102
RTVSPost2010PropOp36
 70
     1
102
RTVSPost2010Prop37
 90
       50
102
RTVSPost2010PropOp37
 70
     1
102
RTVSPost2010Prop38
140
0.0
102
RTVSPost2010PropOp38
 70
     1
102
RTVSPost2010Prop39
140
1.0
102
RTVSPost2010PropOp39
 70
     1
102
RTVSPost2010Prop40
 90
        0
102
RTVSPost2010PropOp40
 70
     1
102
RTVSPost2010Prop41ColorIndex
 90
       18
102
RTVSPost2010Prop41ColorRGB
 90
        0
102
RTVSPost2010PropOp41
 70
     1
102
RTVSPost2010Prop42
 90
       50
102
RTVSPost2010PropOp42
 70
     1
102
RTVSPost2010Prop43
 90
        3
102
RTVSPost2010PropOp43
 70
     1
102
RTVSPost2010Prop44ColorIndex
 90
        5
102
RTVSPost2010Prop44ColorRGB
 90
      255
102
RTVSPost2010PropOp44
 70
     1
102
RTVSPost2010Prop45
280
     0
102
RTVSPost2010PropOp45
 70
     1
102
RTVSPost2010Prop46
 90
       50
102
RTVSPost2010PropOp46
 70
     1
102
RTVSPost2010Prop47
 90
       50
102
RTVSPost2010PropOp47
 70
     1
102
RTVSPost2010Prop48
 90
       50
102
RTVSPost2010PropOp48
 70
     1
102
RTVSPost2010Prop49
280
     0
102
RTVSPost2010PropOp49
 70
     1
102
RTVSPost2010Prop50
 90
       50
102
RTVSPost2010PropOp50
 70
     1
102
RTVSPost2010Prop51ColorIndex
 90
      256
102
RTVSPost2010Prop51ColorRGB
 90
-16777216
102
RTVSPost2010PropOp51
 70
     0
102
RTVSPost2010Prop52
140
1.0
102
RTVSPost2010PropOp52
 70
     0
102
RTVSPost2010Prop53
 90
        2
102
RTVSPost2010PropOp53
 70
     1
102
RTVSPost2010Prop54
  1
strokes_ogs.tif
102
RTVSPost2010PropOp54
 70
     1
102
RTVSPost2010Prop55
280
     0
102
RTVSPost2010PropOp55
 70
     1
102
RTVSPost2010Prop56
140
1.0
102
RTVSPost2010PropOp56
 70
     1
102
RTVSPost2010Prop57
140
1.0
102
RTVSPost2010PropOp57
 70
     1
102
RTVSPropertyOp0
 70
     1
102
RTVSPropertyOp1
 70
     1
102
RTVSPropertyOp2
 70
     1
102
RTVSPropertyOp3
 70
     1
102
RTVSPropertyOp4
 70
     1
102
RTVSPropertyOp5
 70
     1
102
RTVSPropertyOp6
 70
     1
102
RTVSPropertyOp7
 70
     1
102
RTVSPropertyOp8
 70
     1
102
RTVSPropertyOp9
 70
     1
102
RTVSPropertyOp10
 70
     1
102
RTVSPropertyOp11
 70
     1
102
RTVSPropertyOp12
 70
     1
102
RTVSPropertyOp13
 70
     1
102
RTVSPropertyOp14
 70
     1
102
RTVSPropertyOp15
 70
     1
102
RTVSPropertyOp16
 70
     1
102
RTVSPropertyOp17
 70
     1
102
RTVSPropertyOp18
 70
     1
102
RTVSPropertyOp19
 70
     1
102
RTVSPropertyOp20
 70
     1
102
RTVSPropertyOp21
 70
     1
102
RTVSPropertyOp22
 70
     1
102
RTVSPropertyOp23
 70
     1
102
RTVSPropertyOp24
 70
     1
102
RTVSPropertyOp25
 70
     1
102
RTVSPropertyOp26
 70
     1
102
RTVSPropertyOp27
 70
     1
102
RTVSPropertyOp28
 70
     1
102
RTVSPropertyOp29
 70
     1
102
RTVSPropertyOp30
 70
     1
102
RTVSPropertyOp31
 70
     1
102
RTVSPropertyOp32
 70
     1
102
RTVSPropertyOp33
 70
     1
102
RTVSPropertyOp34
 70
     1
102
RTVSPropertyOp35
 70
     1
102
RTVSPropertyOp36
 70
     1
102
RTVSPropertyOp37
 70
     1
102
RTVSPropertyOp38
 70
     1
102
RTVSPropertyOp39
 70
     1
102
RTVSPropertyOp40
 70
     1
102
RTVSPropertyOp41
 70
     1
102
RTVSPropertyOp42
 70
     1
102
RTVSPropertyOp43
 70
     1
102
RTVSPropertyOp44
 70
     1
102
RTVSPropertyOp45
 70
     1
102
RTVSPropertyOp46
 70
     1
102
RTVSPropertyOp47
 70
     1
102
RTVSPropertyOp48
 70
     1
102
RTVSPropertyOp49
 70
     1
102
RTVSPropertyOp50
 70
     1
102
RTVSPropertyOp51
 70
     0
102
RTVSPropertyOp52
 70
     0
102
RTVSPropertyOp53
 70
     1
102
RTVSPropertyOp54
 70
     1
102
RTVSPropertyOp55
 70
     1
102
RTVSPropertyOp56
 70
     1
102
RTVSPropertyOp57
 70
     1
102
RTVSPropertyOp58
 70
     1
102
RTVSPropertyOp59
 70
     1
102
RTVSPropertyOp60
 70
     1
102
RTVSPropertyOp61
 70
     1
102
RTVSPropertyOp62
 70
     1
  0
XRECORD
  5
7CA
102
{ACAD_REACTORS
330
7C9
102
}
330
7C9
100
AcDbXrecord
280
     1
102
RTVSPost2010Prop28
280
     0
102
RTVSPost2010PropOp28
 70
     1
102
RTVSPost2010Prop29
280
     1
102
RTVSPost2010PropOp29
 70
     1
102
RTVSPost2010Prop30
280
     1
102
RTVSPost2010PropOp30
 70
     1
102
RTVSPost2010Prop31
280
     0
102
RTVSPost2010PropOp31
 70
     1
102
RTVSPost2010Prop32
280
     0
102
RTVSPost2010PropOp32
 70
     1
102
RTVSPost2010Prop33
280
     0
102
RTVSPost2010PropOp33
 70
     1
102
RTVSPost2010Prop34
280
     0
102
RTVSPost2010PropOp34
 70
     1
102
RTVSPost2010Prop35
280
     0
102
RTVSPost2010PropOp35
 70
     1
102
RTVSPost2010Prop36
280
     0
102
RTVSPost2010PropOp36
 70
     1
102
RTVSPost2010Prop37
 90
       50
102
RTVSPost2010PropOp37
 70
     1
102
RTVSPost2010Prop38
140
0.0
102
RTVSPost2010PropOp38
 70
     1
102
RTVSPost2010Prop39
140
1.0
102
RTVSPost2010PropOp39
 70
     1
102
RTVSPost2010Prop40
 90
        0
102
RTVSPost2010PropOp40
 70
     1
102
RTVSPost2010Prop41ColorIndex
 90
       18
102
RTVSPost2010Prop41ColorRGB
 90
        0
102
RTVSPost2010PropOp41
 70
     1
102
RTVSPost2010Prop42
 90
       50
102
RTVSPost2010PropOp42
 70
     1
102
RTVSPost2010Prop43
 90
        3
102
RTVSPost2010PropOp43
 70
     1
102
RTVSPost2010Prop44ColorIndex
 90
        5
102
RTVSPost2010Prop44ColorRGB
 90
      255
102
RTVSPost2010PropOp44
 70
     1
102
RTVSPost2010Prop45
280
     0
102
RTVSPost2010PropOp45
 70
     1
102
RTVSPost2010Prop46
 90
       50
102
RTVSPost2010PropOp46
 70
     1
102
RTVSPost2010Prop47
 90
       50
102
RTVSPost2010PropOp47
 70
     1
102
RTVSPost2010Prop48
 90
       50
102
RTVSPost2010PropOp48
 70
     1
102
RTVSPost2010Prop49
280
     0
102
RTVSPost2010PropOp49
 70
     1
102
RTVSPost2010Prop50
 90
       50
102
RTVSPost2010PropOp50
 70
     1
102
RTVSPost2010Prop51ColorIndex
 90
      256
102
RTVSPost2010Prop51ColorRGB
 90
-16777216
102
RTVSPost2010PropOp51
 70
     0
102
RTVSPost2010Prop52
140
1.0
102
RTVSPost2010PropOp52
 70
     0
102
RTVSPost2010Prop53
 90
        2
102
RTVSPost2010PropOp53
 70
     1
102
RTVSPost2010Prop54
  1
strokes_ogs.tif
102
RTVSPost2010PropOp54
 70
     1
102
RTVSPost2010Prop55
280
     0
102
RTVSPost2010PropOp55
 70
     1
102
RTVSPost2010Prop56
140
1.0
102
RTVSPost2010PropOp56
 70
     1
102
RTVSPost2010Prop57
140
1.0
102
RTVSPost2010PropOp57
 70
     1
102
RTVSPropertyOp0
 70
     1
102
RTVSPropertyOp1
 70
     1
102
RTVSPropertyOp2
 70
     1
102
RTVSPropertyOp3
 70
     1
102
RTVSPropertyOp4
 70
     1
102
RTVSPropertyOp5
 70
     1
102
RTVSPropertyOp6
 70
     1
102
RTVSPropertyOp7
 70
     1
102
RTVSPropertyOp8
 70
     1
102
RTVSPropertyOp9
 70
     1
102
RTVSPropertyOp10
 70
     1
102
RTVSPropertyOp11
 70
     1
102
RTVSPropertyOp12
 70
     1
102
RTVSPropertyOp13
 70
     1
102
RTVSPropertyOp14
 70
     1
102
RTVSPropertyOp15
 70
     1
102
RTVSPropertyOp16
 70
     1
102
RTVSPropertyOp17
 70
     1
102
RTVSPropertyOp18
 70
     1
102
RTVSPropertyOp19
 70
     1
102
RTVSPropertyOp20
 70
     1
102
RTVSPropertyOp21
 70
     1
102
RTVSPropertyOp22
 70
     1
102
RTVSPropertyOp23
 70
     1
102
RTVSPropertyOp24
 70
     1
102
RTVSPropertyOp25
 70
     1
102
RTVSPropertyOp26
 70
     1
102
RTVSPropertyOp27
 70
     1
102
RTVSPropertyOp28
 70
     1
102
RTVSPropertyOp29
 70
     1
102
RTVSPropertyOp30
 70
     1
102
RTVSPropertyOp31
 70
     1
102
RTVSPropertyOp32
 70
     1
102
RTVSPropertyOp33
 70
     1
102
RTVSPropertyOp34
 70
     1
102
RTVSPropertyOp35
 70
     1
102
RTVSPropertyOp36
 70
     1
102
RTVSPropertyOp37
 70
     1
102
RTVSPropertyOp38
 70
     1
102
RTVSPropertyOp39
 70
     1
102
RTVSPropertyOp40
 70
     1
102
RTVSPropertyOp41
 70
     1
102
RTVSPropertyOp42
 70
     1
102
RTVSPropertyOp43
 70
     1
102
RTVSPropertyOp44
 70
     1
102
RTVSPropertyOp45
 70
     1
102
RTVSPropertyOp46
 70
     1
102
RTVSPropertyOp47
 70
     1
102
RTVSPropertyOp48
 70
     1
102
RTVSPropertyOp49
 70
     1
102
RTVSPropertyOp50
 70
     1
102
RTVSPropertyOp51
 70
     0
102
RTVSPropertyOp52
 70
     0
102
RTVSPropertyOp53
 70
     1
102
RTVSPropertyOp54
 70
     1
102
RTVSPropertyOp55
 70
     1
102
RTVSPropertyOp56
 70
     1
102
RTVSPropertyOp57
 70
     1
102
RTVSPropertyOp58
 70
     1
102
RTVSPropertyOp59
 70
     1
102
RTVSPropertyOp60
 70
     1
102
RTVSPropertyOp61
 70
     1
102
RTVSPropertyOp62
 70
     1
  0
XRECORD
  5
7C8
102
{ACAD_REACTORS
330
7C7
102
}
330
7C7
100
AcDbXrecord
280
     1
102
RTVSPost2010Prop28
280
     0
102
RTVSPost2010PropOp28
 70
     1
102
RTVSPost2010Prop29
280
     1
102
RTVSPost2010PropOp29
 70
     1
102
RTVSPost2010Prop30
280
     1
102
RTVSPost2010PropOp30
 70
     1
102
RTVSPost2010Prop31
280
     0
102
RTVSPost2010PropOp31
 70
     1
102
RTVSPost2010Prop32
280
     0
102
RTVSPost2010PropOp32
 70
     1
102
RTVSPost2010Prop33
280
     0
102
RTVSPost2010PropOp33
 70
     1
102
RTVSPost2010Prop34
280
     0
102
RTVSPost2010PropOp34
 70
     1
102
RTVSPost2010Prop35
280
     0
102
RTVSPost2010PropOp35
 70
     1
102
RTVSPost2010Prop36
280
     0
102
RTVSPost2010PropOp36
 70
     1
102
RTVSPost2010Prop37
 90
       50
102
RTVSPost2010PropOp37
 70
     1
102
RTVSPost2010Prop38
140
0.0
102
RTVSPost2010PropOp38
 70
     1
102
RTVSPost2010Prop39
140
1.0
102
RTVSPost2010PropOp39
 70
     1
102
RTVSPost2010Prop40
 90
        0
102
RTVSPost2010PropOp40
 70
     1
102
RTVSPost2010Prop41ColorIndex
 90
       18
102
RTVSPost2010Prop41ColorRGB
 90
        0
102
RTVSPost2010PropOp41
 70
     1
102
RTVSPost2010Prop42
 90
       50
102
RTVSPost2010PropOp42
 70
     1
102
RTVSPost2010Prop43
 90
        3
102
RTVSPost2010PropOp43
 70
     1
102
RTVSPost2010Prop44ColorIndex
 90
        5
102
RTVSPost2010Prop44ColorRGB
 90
      255
102
RTVSPost2010PropOp44
 70
     1
102
RTVSPost2010Prop45
280
     0
102
RTVSPost2010PropOp45
 70
     1
102
RTVSPost2010Prop46
 90
       50
102
RTVSPost2010PropOp46
 70
     1
102
RTVSPost2010Prop47
 90
       50
102
RTVSPost2010PropOp47
 70
     1
102
RTVSPost2010Prop48
 90
       50
102
RTVSPost2010PropOp48
 70
     1
102
RTVSPost2010Prop49
280
     0
102
RTVSPost2010PropOp49
 70
     1
102
RTVSPost2010Prop50
 90
       50
102
RTVSPost2010PropOp50
 70
     1
102
RTVSPost2010Prop51ColorIndex
 90
      256
102
RTVSPost2010Prop51ColorRGB
 90
-16777216
102
RTVSPost2010PropOp51
 70
     0
102
RTVSPost2010Prop52
140
1.0
102
RTVSPost2010PropOp52
 70
     0
102
RTVSPost2010Prop53
 90
        2
102
RTVSPost2010PropOp53
 70
     1
102
RTVSPost2010Prop54
  1
strokes_ogs.tif
102
RTVSPost2010PropOp54
 70
     1
102
RTVSPost2010Prop55
280
     0
102
RTVSPost2010PropOp55
 70
     1
102
RTVSPost2010Prop56
140
1.0
102
RTVSPost2010PropOp56
 70
     1
102
RTVSPost2010Prop57
140
1.0
102
RTVSPost2010PropOp57
 70
     1
102
RTVSPropertyOp0
 70
     1
102
RTVSPropertyOp1
 70
     1
102
RTVSPropertyOp2
 70
     1
102
RTVSPropertyOp3
 70
     1
102
RTVSPropertyOp4
 70
     1
102
RTVSPropertyOp5
 70
     1
102
RTVSPropertyOp6
 70
     1
102
RTVSPropertyOp7
 70
     1
102
RTVSPropertyOp8
 70
     1
102
RTVSPropertyOp9
 70
     1
102
RTVSPropertyOp10
 70
     1
102
RTVSPropertyOp11
 70
     1
102
RTVSPropertyOp12
 70
     1
102
RTVSPropertyOp13
 70
     1
102
RTVSPropertyOp14
 70
     1
102
RTVSPropertyOp15
 70
     1
102
RTVSPropertyOp16
 70
     1
102
RTVSPropertyOp17
 70
     1
102
RTVSPropertyOp18
 70
     1
102
RTVSPropertyOp19
 70
     1
102
RTVSPropertyOp20
 70
     1
102
RTVSPropertyOp21
 70
     1
102
RTVSPropertyOp22
 70
     1
102
RTVSPropertyOp23
 70
     1
102
RTVSPropertyOp24
 70
     1
102
RTVSPropertyOp25
 70
     1
102
RTVSPropertyOp26
 70
     1
102
RTVSPropertyOp27
 70
     1
102
RTVSPropertyOp28
 70
     1
102
RTVSPropertyOp29
 70
     1
102
RTVSPropertyOp30
 70
     1
102
RTVSPropertyOp31
 70
     1
102
RTVSPropertyOp32
 70
     1
102
RTVSPropertyOp33
 70
     1
102
RTVSPropertyOp34
 70
     1
102
RTVSPropertyOp35
 70
     1
102
RTVSPropertyOp36
 70
     1
102
RTVSPropertyOp37
 70
     1
102
RTVSPropertyOp38
 70
     1
102
RTVSPropertyOp39
 70
     1
102
RTVSPropertyOp40
 70
     1
102
RTVSPropertyOp41
 70
     1
102
RTVSPropertyOp42
 70
     1
102
RTVSPropertyOp43
 70
     1
102
RTVSPropertyOp44
 70
     1
102
RTVSPropertyOp45
 70
     1
102
RTVSPropertyOp46
 70
     1
102
RTVSPropertyOp47
 70
     1
102
RTVSPropertyOp48
 70
     1
102
RTVSPropertyOp49
 70
     1
102
RTVSPropertyOp50
 70
     1
102
RTVSPropertyOp51
 70
     0
102
RTVSPropertyOp52
 70
     0
102
RTVSPropertyOp53
 70
     1
102
RTVSPropertyOp54
 70
     1
102
RTVSPropertyOp55
 70
     1
102
RTVSPropertyOp56
 70
     1
102
RTVSPropertyOp57
 70
     1
102
RTVSPropertyOp58
 70
     1
102
RTVSPropertyOp59
 70
     1
102
RTVSPropertyOp60
 70
     1
102
RTVSPropertyOp61
 70
     1
102
RTVSPropertyOp62
 70
     1
  0
XRECORD
  5
7C2
102
{ACAD_REACTORS
330
7C1
102
}
330
7C1
100
AcDbXrecord
280
     1
102
RTVSPost2010Prop28
280
     0
102
RTVSPost2010PropOp28
 70
     1
102
RTVSPost2010Prop29
280
     1
102
RTVSPost2010PropOp29
 70
     1
102
RTVSPost2010Prop30
280
     1
102
RTVSPost2010PropOp30
 70
     1
102
RTVSPost2010Prop31
280
     0
102
RTVSPost2010PropOp31
 70
     1
102
RTVSPost2010Prop32
280
     0
102
RTVSPost2010PropOp32
 70
     1
102
RTVSPost2010Prop33
280
     0
102
RTVSPost2010PropOp33
 70
     1
102
RTVSPost2010Prop34
280
     0
102
RTVSPost2010PropOp34
 70
     1
102
RTVSPost2010Prop35
280
     0
102
RTVSPost2010PropOp35
 70
     1
102
RTVSPost2010Prop36
280
     0
102
RTVSPost2010PropOp36
 70
     1
102
RTVSPost2010Prop37
 90
       50
102
RTVSPost2010PropOp37
 70
     1
102
RTVSPost2010Prop38
140
0.0
102
RTVSPost2010PropOp38
 70
     1
102
RTVSPost2010Prop39
140
1.0
102
RTVSPost2010PropOp39
 70
     1
102
RTVSPost2010Prop40
 90
        0
102
RTVSPost2010PropOp40
 70
     1
102
RTVSPost2010Prop41ColorIndex
 90
       18
102
RTVSPost2010Prop41ColorRGB
 90
        0
102
RTVSPost2010PropOp41
 70
     1
102
RTVSPost2010Prop42
 90
       50
102
RTVSPost2010PropOp42
 70
     1
102
RTVSPost2010Prop43
 90
        3
102
RTVSPost2010PropOp43
 70
     1
102
RTVSPost2010Prop44ColorIndex
 90
        5
102
RTVSPost2010Prop44ColorRGB
 90
      255
102
RTVSPost2010PropOp44
 70
     1
102
RTVSPost2010Prop45
280
     0
102
RTVSPost2010PropOp45
 70
     1
102
RTVSPost2010Prop46
 90
       50
102
RTVSPost2010PropOp46
 70
     1
102
RTVSPost2010Prop47
 90
       50
102
RTVSPost2010PropOp47
 70
     1
102
RTVSPost2010Prop48
 90
       50
102
RTVSPost2010PropOp48
 70
     1
102
RTVSPost2010Prop49
280
     0
102
RTVSPost2010PropOp49
 70
     1
102
RTVSPost2010Prop50
 90
       50
102
RTVSPost2010PropOp50
 70
     1
102
RTVSPost2010Prop51ColorIndex
 90
      256
102
RTVSPost2010Prop51ColorRGB
 90
-16777216
102
RTVSPost2010PropOp51
 70
     0
102
RTVSPost2010Prop52
140
1.0
102
RTVSPost2010PropOp52
 70
     0
102
RTVSPost2010Prop53
 90
        2
102
RTVSPost2010PropOp53
 70
     1
102
RTVSPost2010Prop54
  1
strokes_ogs.tif
102
RTVSPost2010PropOp54
 70
     1
102
RTVSPost2010Prop55
280
     0
102
RTVSPost2010PropOp55
 70
     1
102
RTVSPost2010Prop56
140
1.0
102
RTVSPost2010PropOp56
 70
     1
102
RTVSPost2010Prop57
140
1.0
102
RTVSPost2010PropOp57
 70
     1
102
RTVSPropertyOp0
 70
     1
102
RTVSPropertyOp1
 70
     1
102
RTVSPropertyOp2
 70
     1
102
RTVSPropertyOp3
 70
     1
102
RTVSPropertyOp4
 70
     1
102
RTVSPropertyOp5
 70
     1
102
RTVSPropertyOp6
 70
     1
102
RTVSPropertyOp7
 70
     1
102
RTVSPropertyOp8
 70
     1
102
RTVSPropertyOp9
 70
     1
102
RTVSPropertyOp10
 70
     1
102
RTVSPropertyOp11
 70
     1
102
RTVSPropertyOp12
 70
     1
102
RTVSPropertyOp13
 70
     1
102
RTVSPropertyOp14
 70
     1
102
RTVSPropertyOp15
 70
     1
102
RTVSPropertyOp16
 70
     1
102
RTVSPropertyOp17
 70
     1
102
RTVSPropertyOp18
 70
     1
102
RTVSPropertyOp19
 70
     1
102
RTVSPropertyOp20
 70
     1
102
RTVSPropertyOp21
 70
     1
102
RTVSPropertyOp22
 70
     1
102
RTVSPropertyOp23
 70
     1
102
RTVSPropertyOp24
 70
     1
102
RTVSPropertyOp25
 70
     1
102
RTVSPropertyOp26
 70
     1
102
RTVSPropertyOp27
 70
     1
102
RTVSPropertyOp28
 70
     1
102
RTVSPropertyOp29
 70
     1
102
RTVSPropertyOp30
 70
     1
102
RTVSPropertyOp31
 70
     1
102
RTVSPropertyOp32
 70
     1
102
RTVSPropertyOp33
 70
     1
102
RTVSPropertyOp34
 70
     1
102
RTVSPropertyOp35
 70
     1
102
RTVSPropertyOp36
 70
     1
102
RTVSPropertyOp37
 70
     1
102
RTVSPropertyOp38
 70
     1
102
RTVSPropertyOp39
 70
     1
102
RTVSPropertyOp40
 70
     1
102
RTVSPropertyOp41
 70
     1
102
RTVSPropertyOp42
 70
     1
102
RTVSPropertyOp43
 70
     1
102
RTVSPropertyOp44
 70
     1
102
RTVSPropertyOp45
 70
     1
102
RTVSPropertyOp46
 70
     1
102
RTVSPropertyOp47
 70
     1
102
RTVSPropertyOp48
 70
     1
102
RTVSPropertyOp49
 70
     1
102
RTVSPropertyOp50
 70
     1
102
RTVSPropertyOp51
 70
     0
102
RTVSPropertyOp52
 70
     0
102
RTVSPropertyOp53
 70
     1
102
RTVSPropertyOp54
 70
     1
102
RTVSPropertyOp55
 70
     1
102
RTVSPropertyOp56
 70
     1
102
RTVSPropertyOp57
 70
     1
102
RTVSPropertyOp58
 70
     1
102
RTVSPropertyOp59
 70
     1
102
RTVSPropertyOp60
 70
     1
102
RTVSPropertyOp61
 70
     1
102
RTVSPropertyOp62
 70
     1
  0
XRECORD
  5
7C4
102
{ACAD_REACTORS
330
7C3
102
}
330
7C3
100
AcDbXrecord
280
     1
102
RTVSPost2010Prop28
280
     0
102
RTVSPost2010PropOp28
 70
     1
102
RTVSPost2010Prop29
280
     1
102
RTVSPost2010PropOp29
 70
     1
102
RTVSPost2010Prop30
280
     1
102
RTVSPost2010PropOp30
 70
     1
102
RTVSPost2010Prop31
280
     0
102
RTVSPost2010PropOp31
 70
     1
102
RTVSPost2010Prop32
280
     0
102
RTVSPost2010PropOp32
 70
     1
102
RTVSPost2010Prop33
280
     0
102
RTVSPost2010PropOp33
 70
     1
102
RTVSPost2010Prop34
280
     0
102
RTVSPost2010PropOp34
 70
     1
102
RTVSPost2010Prop35
280
     0
102
RTVSPost2010PropOp35
 70
     1
102
RTVSPost2010Prop36
280
     0
102
RTVSPost2010PropOp36
 70
     1
102
RTVSPost2010Prop37
 90
       50
102
RTVSPost2010PropOp37
 70
     1
102
RTVSPost2010Prop38
140
0.0
102
RTVSPost2010PropOp38
 70
     1
102
RTVSPost2010Prop39
140
1.0
102
RTVSPost2010PropOp39
 70
     1
102
RTVSPost2010Prop40
 90
        0
102
RTVSPost2010PropOp40
 70
     1
102
RTVSPost2010Prop41ColorIndex
 90
       18
102
RTVSPost2010Prop41ColorRGB
 90
        0
102
RTVSPost2010PropOp41
 70
     1
102
RTVSPost2010Prop42
 90
       50
102
RTVSPost2010PropOp42
 70
     1
102
RTVSPost2010Prop43
 90
        3
102
RTVSPost2010PropOp43
 70
     1
102
RTVSPost2010Prop44ColorIndex
 90
        5
102
RTVSPost2010Prop44ColorRGB
 90
      255
102
RTVSPost2010PropOp44
 70
     1
102
RTVSPost2010Prop45
280
     0
102
RTVSPost2010PropOp45
 70
     1
102
RTVSPost2010Prop46
 90
       50
102
RTVSPost2010PropOp46
 70
     1
102
RTVSPost2010Prop47
 90
       50
102
RTVSPost2010PropOp47
 70
     1
102
RTVSPost2010Prop48
 90
       50
102
RTVSPost2010PropOp48
 70
     1
102
RTVSPost2010Prop49
280
     0
102
RTVSPost2010PropOp49
 70
     1
102
RTVSPost2010Prop50
 90
       50
102
RTVSPost2010PropOp50
 70
     1
102
RTVSPost2010Prop51ColorIndex
 90
      256
102
RTVSPost2010Prop51ColorRGB
 90
-16777216
102
RTVSPost2010PropOp51
 70
     0
102
RTVSPost2010Prop52
140
1.0
102
RTVSPost2010PropOp52
 70
     0
102
RTVSPost2010Prop53
 90
        2
102
RTVSPost2010PropOp53
 70
     1
102
RTVSPost2010Prop54
  1
strokes_ogs.tif
102
RTVSPost2010PropOp54
 70
     1
102
RTVSPost2010Prop55
280
     0
102
RTVSPost2010PropOp55
 70
     1
102
RTVSPost2010Prop56
140
1.0
102
RTVSPost2010PropOp56
 70
     1
102
RTVSPost2010Prop57
140
1.0
102
RTVSPost2010PropOp57
 70
     1
102
RTVSPropertyOp0
 70
     1
102
RTVSPropertyOp1
 70
     1
102
RTVSPropertyOp2
 70
     1
102
RTVSPropertyOp3
 70
     1
102
RTVSPropertyOp4
 70
     1
102
RTVSPropertyOp5
 70
     1
102
RTVSPropertyOp6
 70
     1
102
RTVSPropertyOp7
 70
     1
102
RTVSPropertyOp8
 70
     1
102
RTVSPropertyOp9
 70
     1
102
RTVSPropertyOp10
 70
     1
102
RTVSPropertyOp11
 70
     1
102
RTVSPropertyOp12
 70
     1
102
RTVSPropertyOp13
 70
     1
102
RTVSPropertyOp14
 70
     1
102
RTVSPropertyOp15
 70
     1
102
RTVSPropertyOp16
 70
     1
102
RTVSPropertyOp17
 70
     1
102
RTVSPropertyOp18
 70
     1
102
RTVSPropertyOp19
 70
     1
102
RTVSPropertyOp20
 70
     1
102
RTVSPropertyOp21
 70
     1
102
RTVSPropertyOp22
 70
     1
102
RTVSPropertyOp23
 70
     1
102
RTVSPropertyOp24
 70
     1
102
RTVSPropertyOp25
 70
     1
102
RTVSPropertyOp26
 70
     1
102
RTVSPropertyOp27
 70
     1
102
RTVSPropertyOp28
 70
     1
102
RTVSPropertyOp29
 70
     1
102
RTVSPropertyOp30
 70
     1
102
RTVSPropertyOp31
 70
     1
102
RTVSPropertyOp32
 70
     1
102
RTVSPropertyOp33
 70
     1
102
RTVSPropertyOp34
 70
     1
102
RTVSPropertyOp35
 70
     1
102
RTVSPropertyOp36
 70
     1
102
RTVSPropertyOp37
 70
     1
102
RTVSPropertyOp38
 70
     1
102
RTVSPropertyOp39
 70
     1
102
RTVSPropertyOp40
 70
     1
102
RTVSPropertyOp41
 70
     1
102
RTVSPropertyOp42
 70
     1
102
RTVSPropertyOp43
 70
     1
102
RTVSPropertyOp44
 70
     1
102
RTVSPropertyOp45
 70
     1
102
RTVSPropertyOp46
 70
     1
102
RTVSPropertyOp47
 70
     1
102
RTVSPropertyOp48
 70
     1
102
RTVSPropertyOp49
 70
     1
102
RTVSPropertyOp50
 70
     1
102
RTVSPropertyOp51
 70
     0
102
RTVSPropertyOp52
 70
     0
102
RTVSPropertyOp53
 70
     1
102
RTVSPropertyOp54
 70
     1
102
RTVSPropertyOp55
 70
     1
102
RTVSPropertyOp56
 70
     1
102
RTVSPropertyOp57
 70
     1
102
RTVSPropertyOp58
 70
     1
102
RTVSPropertyOp59
 70
     1
102
RTVSPropertyOp60
 70
     1
102
RTVSPropertyOp61
 70
     1
102
RTVSPropertyOp62
 70
     1
  0
XRECORD
  5
7BA
102
{ACAD_REACTORS
330
7B9
102
}
330
7B9
100
AcDbXrecord
280
     1
102
RTVSPost2010Prop28
280
     0
102
RTVSPost2010PropOp28
 70
     1
102
RTVSPost2010Prop29
280
     1
102
RTVSPost2010PropOp29
 70
     1
102
RTVSPost2010Prop30
280
     1
102
RTVSPost2010PropOp30
 70
     1
102
RTVSPost2010Prop31
280
     0
102
RTVSPost2010PropOp31
 70
     1
102
RTVSPost2010Prop32
280
     0
102
RTVSPost2010PropOp32
 70
     1
102
RTVSPost2010Prop33
280
     0
102
RTVSPost2010PropOp33
 70
     1
102
RTVSPost2010Prop34
280
     0
102
RTVSPost2010PropOp34
 70
     1
102
RTVSPost2010Prop35
280
     0
102
RTVSPost2010PropOp35
 70
     1
102
RTVSPost2010Prop36
280
     0
102
RTVSPost2010PropOp36
 70
     1
102
RTVSPost2010Prop37
 90
       50
102
RTVSPost2010PropOp37
 70
     1
102
RTVSPost2010Prop38
140
0.0
102
RTVSPost2010PropOp38
 70
     1
102
RTVSPost2010Prop39
140
1.0
102
RTVSPost2010PropOp39
 70
     1
102
RTVSPost2010Prop40
 90
        0
102
RTVSPost2010PropOp40
 70
     1
102
RTVSPost2010Prop41ColorIndex
 90
       18
102
RTVSPost2010Prop41ColorRGB
 90
        0
102
RTVSPost2010PropOp41
 70
     1
102
RTVSPost2010Prop42
 90
       50
102
RTVSPost2010PropOp42
 70
     1
102
RTVSPost2010Prop43
 90
        3
102
RTVSPost2010PropOp43
 70
     1
102
RTVSPost2010Prop44ColorIndex
 90
        5
102
RTVSPost2010Prop44ColorRGB
 90
      255
102
RTVSPost2010PropOp44
 70
     1
102
RTVSPost2010Prop45
280
     0
102
RTVSPost2010PropOp45
 70
     1
102
RTVSPost2010Prop46
 90
       50
102
RTVSPost2010PropOp46
 70
     1
102
RTVSPost2010Prop47
 90
       50
102
RTVSPost2010PropOp47
 70
     1
102
RTVSPost2010Prop48
 90
       50
102
RTVSPost2010PropOp48
 70
     1
102
RTVSPost2010Prop49
280
     0
102
RTVSPost2010PropOp49
 70
     1
102
RTVSPost2010Prop50
 90
       50
102
RTVSPost2010PropOp50
 70
     1
102
RTVSPost2010Prop51ColorIndex
 90
      256
102
RTVSPost2010Prop51ColorRGB
 90
-16777216
102
RTVSPost2010PropOp51
 70
     0
102
RTVSPost2010Prop52
140
1.0
102
RTVSPost2010PropOp52
 70
     0
102
RTVSPost2010Prop53
 90
        2
102
RTVSPost2010PropOp53
 70
     1
102
RTVSPost2010Prop54
  1
strokes_ogs.tif
102
RTVSPost2010PropOp54
 70
     1
102
RTVSPost2010Prop55
280
     0
102
RTVSPost2010PropOp55
 70
     1
102
RTVSPost2010Prop56
140
1.0
102
RTVSPost2010PropOp56
 70
     1
102
RTVSPost2010Prop57
140
1.0
102
RTVSPost2010PropOp57
 70
     1
102
RTVSPropertyOp0
 70
     1
102
RTVSPropertyOp1
 70
     1
102
RTVSPropertyOp2
 70
     1
102
RTVSPropertyOp3
 70
     1
102
RTVSPropertyOp4
 70
     1
102
RTVSPropertyOp5
 70
     1
102
RTVSPropertyOp6
 70
     1
102
RTVSPropertyOp7
 70
     1
102
RTVSPropertyOp8
 70
     1
102
RTVSPropertyOp9
 70
     1
102
RTVSPropertyOp10
 70
     1
102
RTVSPropertyOp11
 70
     1
102
RTVSPropertyOp12
 70
     1
102
RTVSPropertyOp13
 70
     1
102
RTVSPropertyOp14
 70
     1
102
RTVSPropertyOp15
 70
     1
102
RTVSPropertyOp16
 70
     1
102
RTVSPropertyOp17
 70
     1
102
RTVSPropertyOp18
 70
     1
102
RTVSPropertyOp19
 70
     1
102
RTVSPropertyOp20
 70
     1
102
RTVSPropertyOp21
 70
     1
102
RTVSPropertyOp22
 70
     1
102
RTVSPropertyOp23
 70
     1
102
RTVSPropertyOp24
 70
     1
102
RTVSPropertyOp25
 70
     1
102
RTVSPropertyOp26
 70
     1
102
RTVSPropertyOp27
 70
     1
102
RTVSPropertyOp28
 70
     1
102
RTVSPropertyOp29
 70
     1
102
RTVSPropertyOp30
 70
     1
102
RTVSPropertyOp31
 70
     1
102
RTVSPropertyOp32
 70
     1
102
RTVSPropertyOp33
 70
     1
102
RTVSPropertyOp34
 70
     1
102
RTVSPropertyOp35
 70
     1
102
RTVSPropertyOp36
 70
     1
102
RTVSPropertyOp37
 70
     1
102
RTVSPropertyOp38
 70
     1
102
RTVSPropertyOp39
 70
     1
102
RTVSPropertyOp40
 70
     1
102
RTVSPropertyOp41
 70
     1
102
RTVSPropertyOp42
 70
     1
102
RTVSPropertyOp43
 70
     1
102
RTVSPropertyOp44
 70
     1
102
RTVSPropertyOp45
 70
     1
102
RTVSPropertyOp46
 70
     1
102
RTVSPropertyOp47
 70
     1
102
RTVSPropertyOp48
 70
     1
102
RTVSPropertyOp49
 70
     1
102
RTVSPropertyOp50
 70
     1
102
RTVSPropertyOp51
 70
     0
102
RTVSPropertyOp52
 70
     0
102
RTVSPropertyOp53
 70
     1
102
RTVSPropertyOp54
 70
     1
102
RTVSPropertyOp55
 70
     1
102
RTVSPropertyOp56
 70
     1
102
RTVSPropertyOp57
 70
     1
102
RTVSPropertyOp58
 70
     1
102
RTVSPropertyOp59
 70
     1
102
RTVSPropertyOp60
 70
     1
102
RTVSPropertyOp61
 70
     1
102
RTVSPropertyOp62
 70
     1
  0
XRECORD
  5
7AE
102
{ACAD_REACTORS
330
7AD
102
}
330
7AD
100
AcDbXrecord
280
     1
102
RTVSPost2010Prop28
280
     0
102
RTVSPost2010PropOp28
 70
     1
102
RTVSPost2010Prop29
280
     1
102
RTVSPost2010PropOp29
 70
     1
102
RTVSPost2010Prop30
280
     1
102
RTVSPost2010PropOp30
 70
     1
102
RTVSPost2010Prop31
280
     0
102
RTVSPost2010PropOp31
 70
     1
102
RTVSPost2010Prop32
280
     0
102
RTVSPost2010PropOp32
 70
     1
102
RTVSPost2010Prop33
280
     0
102
RTVSPost2010PropOp33
 70
     1
102
RTVSPost2010Prop34
280
     0
102
RTVSPost2010PropOp34
 70
     1
102
RTVSPost2010Prop35
280
     0
102
RTVSPost2010PropOp35
 70
     1
102
RTVSPost2010Prop36
280
     0
102
RTVSPost2010PropOp36
 70
     1
102
RTVSPost2010Prop37
 90
       50
102
RTVSPost2010PropOp37
 70
     1
102
RTVSPost2010Prop38
140
0.0
102
RTVSPost2010PropOp38
 70
     1
102
RTVSPost2010Prop39
140
1.0
102
RTVSPost2010PropOp39
 70
     1
102
RTVSPost2010Prop40
 90
        0
102
RTVSPost2010PropOp40
 70
     1
102
RTVSPost2010Prop41ColorIndex
 90
       18
102
RTVSPost2010Prop41ColorRGB
 90
        0
102
RTVSPost2010PropOp41
 70
     1
102
RTVSPost2010Prop42
 90
       50
102
RTVSPost2010PropOp42
 70
     1
102
RTVSPost2010Prop43
 90
        3
102
RTVSPost2010PropOp43
 70
     1
102
RTVSPost2010Prop44ColorIndex
 90
        5
102
RTVSPost2010Prop44ColorRGB
 90
      255
102
RTVSPost2010PropOp44
 70
     1
102
RTVSPost2010Prop45
280
     0
102
RTVSPost2010PropOp45
 70
     1
102
RTVSPost2010Prop46
 90
       50
102
RTVSPost2010PropOp46
 70
     1
102
RTVSPost2010Prop47
 90
       50
102
RTVSPost2010PropOp47
 70
     1
102
RTVSPost2010Prop48
 90
       50
102
RTVSPost2010PropOp48
 70
     1
102
RTVSPost2010Prop49
280
     0
102
RTVSPost2010PropOp49
 70
     1
102
RTVSPost2010Prop50
 90
       50
102
RTVSPost2010PropOp50
 70
     1
102
RTVSPost2010Prop51ColorIndex
 90
      256
102
RTVSPost2010Prop51ColorRGB
 90
-16777216
102
RTVSPost2010PropOp51
 70
     0
102
RTVSPost2010Prop52
140
1.0
102
RTVSPost2010PropOp52
 70
     0
102
RTVSPost2010Prop53
 90
        2
102
RTVSPost2010PropOp53
 70
     1
102
RTVSPost2010Prop54
  1
strokes_ogs.tif
102
RTVSPost2010PropOp54
 70
     1
102
RTVSPost2010Prop55
280
     0
102
RTVSPost2010PropOp55
 70
     1
102
RTVSPost2010Prop56
140
1.0
102
RTVSPost2010PropOp56
 70
     1
102
RTVSPost2010Prop57
140
1.0
102
RTVSPost2010PropOp57
 70
     1
102
RTVSPropertyOp0
 70
     1
102
RTVSPropertyOp1
 70
     1
102
RTVSPropertyOp2
 70
     1
102
RTVSPropertyOp3
 70
     1
102
RTVSPropertyOp4
 70
     1
102
RTVSPropertyOp5
 70
     1
102
RTVSPropertyOp6
 70
     1
102
RTVSPropertyOp7
 70
     1
102
RTVSPropertyOp8
 70
     1
102
RTVSPropertyOp9
 70
     1
102
RTVSPropertyOp10
 70
     1
102
RTVSPropertyOp11
 70
     1
102
RTVSPropertyOp12
 70
     1
102
RTVSPropertyOp13
 70
     1
102
RTVSPropertyOp14
 70
     1
102
RTVSPropertyOp15
 70
     1
102
RTVSPropertyOp16
 70
     1
102
RTVSPropertyOp17
 70
     1
102
RTVSPropertyOp18
 70
     1
102
RTVSPropertyOp19
 70
     1
102
RTVSPropertyOp20
 70
     1
102
RTVSPropertyOp21
 70
     1
102
RTVSPropertyOp22
 70
     1
102
RTVSPropertyOp23
 70
     1
102
RTVSPropertyOp24
 70
     1
102
RTVSPropertyOp25
 70
     1
102
RTVSPropertyOp26
 70
     1
102
RTVSPropertyOp27
 70
     1
102
RTVSPropertyOp28
 70
     1
102
RTVSPropertyOp29
 70
     1
102
RTVSPropertyOp30
 70
     1
102
RTVSPropertyOp31
 70
     1
102
RTVSPropertyOp32
 70
     1
102
RTVSPropertyOp33
 70
     1
102
RTVSPropertyOp34
 70
     1
102
RTVSPropertyOp35
 70
     1
102
RTVSPropertyOp36
 70
     1
102
RTVSPropertyOp37
 70
     1
102
RTVSPropertyOp38
 70
     1
102
RTVSPropertyOp39
 70
     1
102
RTVSPropertyOp40
 70
     1
102
RTVSPropertyOp41
 70
     1
102
RTVSPropertyOp42
 70
     1
102
RTVSPropertyOp43
 70
     1
102
RTVSPropertyOp44
 70
     1
102
RTVSPropertyOp45
 70
     1
102
RTVSPropertyOp46
 70
     1
102
RTVSPropertyOp47
 70
     1
102
RTVSPropertyOp48
 70
     1
102
RTVSPropertyOp49
 70
     1
102
RTVSPropertyOp50
 70
     1
102
RTVSPropertyOp51
 70
     0
102
RTVSPropertyOp52
 70
     0
102
RTVSPropertyOp53
 70
     1
102
RTVSPropertyOp54
 70
     1
102
RTVSPropertyOp55
 70
     1
102
RTVSPropertyOp56
 70
     1
102
RTVSPropertyOp57
 70
     1
102
RTVSPropertyOp58
 70
     1
102
RTVSPropertyOp59
 70
     1
102
RTVSPropertyOp60
 70
     1
102
RTVSPropertyOp61
 70
     1
102
RTVSPropertyOp62
 70
     1
  0
XRECORD
  5
7C6
102
{ACAD_REACTORS
330
7C5
102
}
330
7C5
100
AcDbXrecord
280
     1
102
RTVSPost2010Prop28
280
     0
102
RTVSPost2010PropOp28
 70
     1
102
RTVSPost2010Prop29
280
     1
102
RTVSPost2010PropOp29
 70
     1
102
RTVSPost2010Prop30
280
     1
102
RTVSPost2010PropOp30
 70
     1
102
RTVSPost2010Prop31
280
     0
102
RTVSPost2010PropOp31
 70
     1
102
RTVSPost2010Prop32
280
     0
102
RTVSPost2010PropOp32
 70
     1
102
RTVSPost2010Prop33
280
     0
102
RTVSPost2010PropOp33
 70
     1
102
RTVSPost2010Prop34
280
     0
102
RTVSPost2010PropOp34
 70
     1
102
RTVSPost2010Prop35
280
     0
102
RTVSPost2010PropOp35
 70
     1
102
RTVSPost2010Prop36
280
     0
102
RTVSPost2010PropOp36
 70
     1
102
RTVSPost2010Prop37
 90
       50
102
RTVSPost2010PropOp37
 70
     1
102
RTVSPost2010Prop38
140
0.0
102
RTVSPost2010PropOp38
 70
     1
102
RTVSPost2010Prop39
140
1.0
102
RTVSPost2010PropOp39
 70
     1
102
RTVSPost2010Prop40
 90
        0
102
RTVSPost2010PropOp40
 70
     1
102
RTVSPost2010Prop41ColorIndex
 90
       18
102
RTVSPost2010Prop41ColorRGB
 90
        0
102
RTVSPost2010PropOp41
 70
     1
102
RTVSPost2010Prop42
 90
       50
102
RTVSPost2010PropOp42
 70
     1
102
RTVSPost2010Prop43
 90
        3
102
RTVSPost2010PropOp43
 70
     1
102
RTVSPost2010Prop44ColorIndex
 90
        5
102
RTVSPost2010Prop44ColorRGB
 90
      255
102
RTVSPost2010PropOp44
 70
     1
102
RTVSPost2010Prop45
280
     0
102
RTVSPost2010PropOp45
 70
     1
102
RTVSPost2010Prop46
 90
       50
102
RTVSPost2010PropOp46
 70
     1
102
RTVSPost2010Prop47
 90
       50
102
RTVSPost2010PropOp47
 70
     1
102
RTVSPost2010Prop48
 90
       50
102
RTVSPost2010PropOp48
 70
     1
102
RTVSPost2010Prop49
280
     0
102
RTVSPost2010PropOp49
 70
     1
102
RTVSPost2010Prop50
 90
       50
102
RTVSPost2010PropOp50
 70
     1
102
RTVSPost2010Prop51ColorIndex
 90
      256
102
RTVSPost2010Prop51ColorRGB
 90
-16777216
102
RTVSPost2010PropOp51
 70
     0
102
RTVSPost2010Prop52
140
1.0
102
RTVSPost2010PropOp52
 70
     0
102
RTVSPost2010Prop53
 90
        2
102
RTVSPost2010PropOp53
 70
     1
102
RTVSPost2010Prop54
  1
strokes_ogs.tif
102
RTVSPost2010PropOp54
 70
     1
102
RTVSPost2010Prop55
280
     0
102
RTVSPost2010PropOp55
 70
     1
102
RTVSPost2010Prop56
140
1.0
102
RTVSPost2010PropOp56
 70
     1
102
RTVSPost2010Prop57
140
1.0
102
RTVSPost2010PropOp57
 70
     1
102
RTVSPropertyOp0
 70
     1
102
RTVSPropertyOp1
 70
     1
102
RTVSPropertyOp2
 70
     1
102
RTVSPropertyOp3
 70
     1
102
RTVSPropertyOp4
 70
     1
102
RTVSPropertyOp5
 70
     1
102
RTVSPropertyOp6
 70
     1
102
RTVSPropertyOp7
 70
     1
102
RTVSPropertyOp8
 70
     1
102
RTVSPropertyOp9
 70
     1
102
RTVSPropertyOp10
 70
     1
102
RTVSPropertyOp11
 70
     1
102
RTVSPropertyOp12
 70
     1
102
RTVSPropertyOp13
 70
     1
102
RTVSPropertyOp14
 70
     1
102
RTVSPropertyOp15
 70
     1
102
RTVSPropertyOp16
 70
     1
102
RTVSPropertyOp17
 70
     1
102
RTVSPropertyOp18
 70
     1
102
RTVSPropertyOp19
 70
     1
102
RTVSPropertyOp20
 70
     1
102
RTVSPropertyOp21
 70
     1
102
RTVSPropertyOp22
 70
     1
102
RTVSPropertyOp23
 70
     1
102
RTVSPropertyOp24
 70
     1
102
RTVSPropertyOp25
 70
     1
102
RTVSPropertyOp26
 70
     1
102
RTVSPropertyOp27
 70
     1
102
RTVSPropertyOp28
 70
     1
102
RTVSPropertyOp29
 70
     1
102
RTVSPropertyOp30
 70
     1
102
RTVSPropertyOp31
 70
     1
102
RTVSPropertyOp32
 70
     1
102
RTVSPropertyOp33
 70
     1
102
RTVSPropertyOp34
 70
     1
102
RTVSPropertyOp35
 70
     1
102
RTVSPropertyOp36
 70
     1
102
RTVSPropertyOp37
 70
     1
102
RTVSPropertyOp38
 70
     1
102
RTVSPropertyOp39
 70
     1
102
RTVSPropertyOp40
 70
     1
102
RTVSPropertyOp41
 70
     1
102
RTVSPropertyOp42
 70
     1
102
RTVSPropertyOp43
 70
     1
102
RTVSPropertyOp44
 70
     1
102
RTVSPropertyOp45
 70
     1
102
RTVSPropertyOp46
 70
     1
102
RTVSPropertyOp47
 70
     1
102
RTVSPropertyOp48
 70
     1
102
RTVSPropertyOp49
 70
     1
102
RTVSPropertyOp50
 70
     1
102
RTVSPropertyOp51
 70
     0
102
RTVSPropertyOp52
 70
     0
102
RTVSPropertyOp53
 70
     1
102
RTVSPropertyOp54
 70
     1
102
RTVSPropertyOp55
 70
     1
102
RTVSPropertyOp56
 70
     1
102
RTVSPropertyOp57
 70
     1
102
RTVSPropertyOp58
 70
     1
102
RTVSPropertyOp59
 70
     1
102
RTVSPropertyOp60
 70
     1
102
RTVSPropertyOp61
 70
     1
102
RTVSPropertyOp62
 70
     1
  0
ENDSEC
  0
EOF
